PrimaNota.ru - самый крупный в мире бесплатный архив песенных текстов, аккордов, табулатур и нот


Fubar - Deans Song - таба, видео

Регистрация Запомнить меня
Войти через:  Facebook Google Twitter Vk Yandex Mail.ru

Fubar - Deans Song - таба, видео

Печатать
Просмотров: 88
Fubar tab - it's probably wrong...I tried to figure it out from the website 
soundbite.
It's just the first bit---don't have any more yet, but there seemed to be a 
lot of folks requesting this tab.

3-----3-----4-----4-----3-----3-----1-----1-----|
--4-----4-----4-----4-----4-----4-----3-----3---|
3---3-3---3-5---5-5---5-3---3-3---3-3---3-3---3-|
------------------------------------------------|
------------------------------------------------|
------------------------------------------------|

3-----3-----4-----4-----1-----1-----------------|
--4-----4-----4-----4-----3-----3-----4-----4...|
3---3-3---3-5---5-5---5-3---3-3---3-----3-------|
--------------------------------------5---5-----|
------------------------------------------------|
------------------------------------------------|



_________________________________________________________________
     
Добавлено: 26.07.2013
Вам также может быть интересно:
Другие материалы по этой песне:
  • Аккорды и текст

Страница создана 26.07.2013
http://primanota.ru/fubar/deans-song-chords.htm
Привет, Гость.
Предлагаем пройти революционный курс по гитаре.
Подарок от PrimaNota.Ru, забирай!