PrimaNota.ru - самый крупный в мире бесплатный архив песенных текстов, аккордов, табулатур и нот


Fu Manchu - Sensai Vs Sensai - таба, видео

Регистрация Запомнить меня
Войти через:  Facebook Google Twitter Vk Yandex Mail.ru

Fu Manchu - Sensai Vs Sensai - таба, видео

Печатать
Просмотров: 160
----------------------------------------------------------------------------
                       Sensai Vs. Sensai by Fu Manchu
----------------------------------------------------------------------------
Tabbed by: T.J. Stimola
Aim: Nuclearbomb8900

Tuning: D Tuning (D-G-C-F-A-d)

Bass Intro/Interludes

F|-------------------------|------------------------|
C|-------------------------|------------------------|
G|---------------7--8--8---|--------3--0--3--5--7---|
D|--3--5--5----5-----------|--3--5------------------|

Verse(s)

    G5   E5      D5

d|:----|------0-3-3-0*---|------------------|
A|:----|----3------------|------------------|
F|:----|-----------------|--7---------------|
C|:--5-|--2--------------|--7------------5--|
G|:--5-|--2--------------|--5------------5--|
D|:--3-|--0--------------|---------------3--|

d|:----|-----------------|--0---------------|
A|:----|-----------------|--0---------------|
F|:----|-----------------|--1---------------|
C|:--5-|--2--------------|--2------------5--|
G|:--5-|--2--------------|--2------------5--|
D|:--3-|--0--------------|--0------------3--|

*after four bars, play every two bars...

Chorus

d|--------------------------|---------------------------------- /     \
A|--------------------------|---------------------------------- /      \
F|---------------8--9--9----|-------------------------       \- / 4X
C|--5--7--7------8--9--9----|-------------------------      --- /
G|--3--7--7------7--8--8----|--------3--0--3--5--7----     ---- /
D|--3--5--5----X------------|--3--5-------------------    ----- /

d|--------------------------|---------------------------------- /     \
A|--------------------------|---------------------------------- /      \
F|---------------8--9--9----|-------------------------       \- / 4X
C|--5--7--7------8--9--9----|-------------------------      --- /
G|--3--7--7------7--8--8----|--------3--0--3--5--7----     ---- /
D|--3--5--5-----------------|--3--5-------------------    ----- /

They switch up the chorus riffs, and i didn't feel like getting it exact... but if you 
to it, you'll get it real easy.

Sorry.. This is a very rough tab. I transcribed it by ear, and I'm fairly certain that I 
something up here...

AIM me if you have any corrections...
Добавлено: 25.04.2012
Другие материалы по этой песне:
  • Аккорды и текст

Страница создана 25.04.2012
http://primanota.ru/fu-manchu/sensai-vs-sensai-chords.htm
Привет, Гость.
Предлагаем пройти революционный курс по гитаре.
Подарок от PrimaNota.Ru, забирай!