PrimaNota.ru - самый крупный в мире бесплатный архив песенных текстов, аккордов, табулатур и нот


Fu Manchu - Knew It All Along - таба, видео

Регистрация Запомнить меня
Войти через:  Facebook Google Twitter Vk Yandex Mail.ru

Fu Manchu - Knew It All Along - таба, видео

Печатать
Просмотров: 223
-------------------------------------------------------------------------------
                            Knew It All Along- Fu Manchu
-------------------------------------------------------------------------------
Tabbed by:Miguel Andrade
Email:Miggy01@hotmail.com

Tuning:Standard

Intro
e|---------------------------------------------------------------------------|
B|---------------------------------------------------------------------------|
G|---------------------------------------------------------------------------|
D|---------------------------------------------------------------------------|
A|---------------------------------------------------------------------------|
E|--33333-66666-55555-88888---x2---------------------------------------------|


Chorus
e|---------------------------------------------------------------------------|
B|---------------------------------------------------------------------------|
G|-------12-------12-------12------------------------------------------------|
D|--5555-----8888----7777-----10101010--8-7----------------------------------|
A|--5555-----8888----7777-----10101010--8-7----------------------------------|
E|--3333-----6666----5555-----8-8-8-8---6-5----------------------------------|

e|---------------------------------------------------------------------------|
B|---------------------------------------------------------------------------|
G|-------12-------15-------14------------------------------------------------|
D|--5555-----8888----7777-----10101010--8-7----------------------------------|
A|--5555-----8888----7777-----10101010--8-7----------------------------------|
E|--3333-----6666----5555-----8-8-8-8---6-5----------------------------------|




Verse
e|---------------------------------------------------------------------------|
B|---------------------------------------------------------------------------|
G|---------------------------------------------------------------------------|
D|--5555-----8888----7777-----10101010--8-7----------------------------------|
A|--5555-----8888----7777-----10101010--8-7----------------------------------|
E|--3333-----6666----5555-----8-8-8-8---6-5---------x2-----------------------|

Breakdown? (starts at 1:01)
starts with :
e|---------------------------------------------------------------------------|
B|---------------------------------------------------------------------------|
G|---------------------------------------------------------------------------|
D|--5555-555-----------------------------------------------------------------|
A|--5555-555-----------------------------------------------------------------|
E|--3333-333-----------------------------------------------------------------|
Just use combination of previous verse/chorus chords to get similar sound


Another little riff at 1:35
e|---------------------------------------------------------------------------|
B|------------------------------6--------------------------------------------|
G|-----7757---7757---7757---7757-757-----------------------------------------|
D|---------------------------------------------------------------------------|
A|--------------------------------------x2-----------------------------------|
E|---------------------------------------------------------------------------|


(solo-maybe later)

There you have it, pretty standard stuff
Use plenty of fuzz

Добавлено: 24.06.2012
Другие материалы по этой песне:
  • Аккорды и текст

Страница создана 24.06.2012
http://primanota.ru/fu-manchu/knew-it-all-along-chords.htm
Привет, Гость.
Предлагаем пройти революционный курс по гитаре.
Подарок от PrimaNota.Ru, забирай!