PrimaNota.ru - самый крупный в мире бесплатный архив песенных текстов, аккордов, табулатур и нот


Fu Manchu - King Of The Road - текст песни, бас-таба, видео

Регистрация Запомнить меня
Войти через:  Facebook Google Twitter Vk Yandex Mail.ru

Fu Manchu - King Of The Road - текст песни, бас-таба, видео

Печатать
Просмотров: 134
h= hammer on
r= let ring
G:-----------------------------------|
D:-------------1---------------------|
A:--1h3-3-3-3-----1h3-3-3-3----------| X8
E:-----------------------------------|


G:-----------------------------------|
D:-----------------------------------|
A:-------------1---------------------| X2
E:--1h3-3-3-3-----1h3-3-3-3----------|


G:-----------------------------------|
D:-------------1---------------------|
A:--1h3-3-3-3-----1h3-3-3-3----------| X4
E:-----------------------------------|

G:-----------------------------------|
D:-----------------------------------|
A:-------------1---------------------| X2
E:--1h3-3-3-3-----1h3-3-3-3----------|

G:-----------------------------------|
D:-------------1---------------------|
A:--1h3-3-3-3-----1h3-3-3-3----------| X2
E:-----------------------------------|

G:-----------------------------------------------------------------|
D:-----------------------------------------------------------------|
A:--3--------------------------------1-----------------------------| X1
E:----3-3-3-3-3-3-3-3-3-3-3-3-3--------1-1-1-1-1-1-1-1-1-1-1-1-1---|

G:-----------------------------------|
D:-------------1---------------------|
A:--1h3-3-3-3-----1h3-3-3-3----------| X8
E:-----------------------------------|

G:-----------------------------------|
D:-----------------------------------|
A:-------------1---------------------| X2
E:--1h3-3-3-3-----1h3-3-3-3----------|

G:-----------------------------------|
D:-------------1---------------------|
A:--1h3-3-3-3-----1h3-3-3-3----------| X2
E:-----------------------------------|

G:-----------------------------------------------------------------|
D:-----------------------------------------------------------------|
A:--3--------------------------------1-----------------------------| X1
E:----3-3-3-3-3-3-3-3-3-3-3-3-3--------1-1-1-1-1-1-1-1-1-1-1-1-1---|

G:-----------------------------------|
D:-------------1---------------------|
A:--1h3-3-3-3-----1h3-3-3-3----------| X4
E:-----------------------------------|

Just keep playing 3 about 240 times or so...listen to the song at 2:02 and you
will understand.
G:-----------------------------------------------------------------|
D:-----------------------------------------------------------------|
A:33333333333333333333333333333333333333333333333333333333333333333
E------------------------------------------------------------------

Then at 3:11 when it stops, play this
G:-----------------------------------|
D:-----------------------------------|
A:---3---------1---------------------|
E:----3r---------1r------------------|

G:----------------------------------------------|
D:-------------1--------------------------------|
A:1h3-3-3-3-----1h3-3-3-3-3-3-3-3-3  X about 13-|
E:----------------------------------------------|

Then this

G:-----------------------------------|
D:-------------1---------------------|
A:--1h3-3-3-3-----1h3-3-3-3----------| X4
E:-----------------------------------|
Добавлено: 14.10.2013
Другие материалы по этой песне:

Страница создана 05.06.2012
http://primanota.ru/fu-manchu/king-of-the-road-chords.htm
Привет, Гость.
Предлагаем пройти революционный курс по гитаре.
Подарок от PrimaNota.Ru, забирай!