PrimaNota.ru - самый крупный в мире бесплатный архив песенных текстов, аккордов, табулатур и нот


Fu Manchu - Blue Tile Fever - текст песни, таба, видео

Регистрация Запомнить меня
Войти через:  Facebook Google Twitter Vk Yandex Mail.ru

Fu Manchu - Blue Tile Fever - текст песни, таба, видео

Печатать
Просмотров: 105
Artist: 	Fu Manchu	
Song:		Blue Tile Fever
Album:	King Of The Road (track 6)
Tuning: 	Down One Step
Tabbed by:  denabob

Rhythm Figure 1:
|----------------------------------------|
|----------------------------------------|
|----------------------------------------|
|-7-7-7-9--9-9-9--9-9-9-9--9-9-9-9-------|
|-7-7-7-9--9-9-9--9-9-9-9--9-9-9-9-------|
|-5-5-5-7—-7-7-7--7-7-7-7--7-7-7-7-------|

Rhythm Figure 2:
|---------------------------------------------------------------------------------------|
|---------------------------------------------------------------------------------------|
|-7-7-7------------------------------7-7-7----------------------------------------------|
|-7-7-7-5--5-5-5--5-5-5-5--5-5-5-5---7-7-7-7--7-7-7---7-7-7-7--7-7-7-7------------------|
|-5-5-5-5--5-5-5--5-5-5-5--5-5-5-5---5-5-5-7--7-7-7---7-7-7-7--7-7-7-7------------------|
|-------3--3-3-3--3-3-3-3--3-3-3-3---------5--5-5-5---5-5-5-5--5-5-5-5------------------|
|
|---------------------------------------------------------------------------------------|
|---------------------------------------------------------------------------------------|
|-7-7-7------------------------------7-7-7----------------------------------------------|
|-7-7-7-9--9-9-9--9-9-9-9--9-9-9-9---7-7-7-9--9-9-9--9-9-9-9--9-9-9-9-------------------|
|-5-5-5-9—-9-9-9--9-9-9-9--9-9-9-9---5-5-5-9--9-9-9--9-9-9-9--9-9-9-9-------------------|
|-------7--7-7-7--7-7-7-7--7-7-7-7---------7--7-7-7--7-7-7-7--7-7-7-7-------------------|

Rhythm Figure 3:
|----------------------------|
|----------------------------|
|----------7---9-------------|
|-7-7-9-9--7-7-9-9-----------|
|-7-7-9-9--5-7-7-9-----------|
|-5-5-7-7----5---7-----------|

Rhythm Figure 4:
|------------------------------------|
|------------------------------------|
|-9-9--7-7-----------5-7-7-----------|
|-9-9--7-7-7-7--5-5--5-7-7-----------|
|-7-7--5-5-7-7--5-5--3/5-5-----------|
|----------5-5--3-3------------------|


Song Structure:

Rhythm Figure 1 (Phaser on)	(12X)
Rhythm Figure 2			(2X)
Rhythm Figure 3 (Phaser off)	(12X)
Rhythm Figure 4 			(1X)
Rhythm Figure 1			(8X)
Rhythm Figure 2			(2X)
Rhythm Figure 3			(16X)	
Rhythm Figure 4			(1X)
Rhythm Figure 1 (Phaser on)	(27X)
Добавлено: 30.05.2012
Другие материалы по этой песне:
  • Аккорды и текст

Страница создана 30.05.2012
http://primanota.ru/fu-manchu/blue-tile-fever-chords.htm
Привет, Гость.
Предлагаем пройти революционный курс по гитаре.
Подарок от PrimaNota.Ru, забирай!