PrimaNota.ru - самый крупный в мире бесплатный архив песенных текстов, аккордов, табулатур и нот


The Frozen Autumn - Winter - бас-таба, видео

Регистрация Запомнить меня
Войти через:  Facebook Google Twitter Vk Yandex Mail.ru

The Frozen Autumn - Winter - бас-таба, видео

Печатать
Просмотров: 81
Tabbed by: bassm99
E-mail: alanmatthews1966@yahoo.co.uk

Tuning: E, A, D, G

"Winter" from the album "Pale Awakening" (1995)
Written by The Frozen Autumn

Bass Starts: 0:11

Intro: 
 
G|---------------------------------------------------------------------------------|
D|---------------------------------3-3-3----5-5-5----------------------------------|
A|----------------------5-5-3-5----------------------------------------------------|
E|--5-5-3-5----3-3-3-----------------------------3---------------------------------|

Verse: (Play Twice)

G|---------------------------------------------------------------------------------|
D|---------------------------------3-3-3----5-5-5----------------------------------|
A|----------------------5-5-3-5----------------------------------------------------|
E|--5-5-3-5----3-3-3-----------------------------3---------------------------------|

Bridge: (Play 4 Times)(See Note Below)

G|---------------------------------------------------------------------------------|
D|---------------------------------------------------------------------------------|
A|---------------------------------------------------------------------------------|
E|--1----3----5--------------------------------------------------------------------|

Chorus:

G|---------------------------------------------------------------------------------|
D|---------------------------------------------------------------------------------|
A|--5-5-5-------3-3-3-------------5-5-5----------3-3-3-----------------------------|
E|--------6-6-6-------3-3-3--3----------6-6-6--6-------3-3-3--3--------------------|

G|---------------------------------------------------------------------------------|
D|---------------------------------------------------------------------------------|
A|--5-5-5-------3-3-3--3---------------5-5-5--5-------3-3-3------------------------|
E|--------6-6-6----------3-3-3--3-3-------------6-6-6-------3-3-3--3-3-------------|

Instrumental Section: (Play Twice)

G|---------------------------------------------------------------------------------|
D|---------------------------------3-3-3----5-5-5----------------------------------|
A|----------------------5-5-3-5----------------------------------------------------|
E|--5-5-3-5----3-3-3-----------------------------3---------------------------------|

Repeat Bridge: (See Note Below)

Chorus:

G|---------------------------------------------------------------------------------|
D|---------------------------------------------------------------------------------|
A|--5-5-5----------3-3-3---------------5-5-5----------3-3-3--3---------------------|
E|--------6-6-6--6-------3-3-3--3-3----------6-6-6--6----------3-3-3--3-3----------|

G|---------------------------------------------------------------------------------|
D|---------------------------------------------------------------------------------|
A|--5-5-5-------3-3-3---------------5-5-5-------3-3-3--3---------------------------|
E|--------6-6-6-------3-3-3--3-3----------6-6-6----------3-3-3--3-3----------------|

Ending:

G|---------------------------------------------------------------------------------|
D|---------------------------------------------------------------------------------|
A|--5-5-5--5-5-3-(x4)----5---------------------------------------------------------|
E|---------------------------------------------------------------------------------|

Note: There is no bass during the Bridge section but I have added a bass part that
      plays along with the synth. 
Добавлено: 02.01.2016
Другие материалы по этой песне:
  • Аккорды и текст

Страница создана 02.01.2016
http://primanota.ru/frozen-autumn/winter-chords.htm
Привет, Гость.
Предлагаем пройти революционный курс по гитаре.
Подарок от PrimaNota.Ru, забирай!