PrimaNota.ru - самый крупный в мире бесплатный архив песенных текстов, аккордов, табулатур и нот


The Frozen Autumn - Again - бас-таба, видео

Регистрация Запомнить меня
Войти через:  Facebook Google Twitter Vk Yandex Mail.ru

The Frozen Autumn - Again - бас-таба, видео

Печатать
Просмотров: 54
Tabbed by: bassm99
E-mail: alanmatthews1966@yahoo.co.uk

Tuning: E, A, D, G

"Again" from the album "Pale Awakening" (1995)
Written by The Frozen Autumn

Bass Starts: 1:09

Verse: (Play Twice)
 
G|---------------------------------------------------------------------------------|
D|---------------------------------------------------------------------------------|
A|--55555555-55555555-88888888-88888888-(x2)---------------------------------------|
E|-------------------------------------------99999999-11-11-11-11-11-11-11-11------|

G|---------------------------------------------------------------------------------|
D|---------------------------------------------------------------------------------|
A|--99999999-99999999-(x1)----------------------------------88888888-88888888-(x1)-|
E|-------------------------99999999-11-11-11-11-11-11-11-11------------------------|

Instrumental: (Play Twice)

G|---------------------------------------------------------------------------------|
D|---------------------------------------------------------------------------------|
A|--55555555-55555555-88888888-88888888-(x2)---------------------------------------|
E|-------------------------------------------99999999-11-11-11-11-11-11-11-11------|

G|---------------------------------------------------------------------------------|
D|---------------------------------------------------------------------------------|
A|--99999999-99999999-(x1)----------------------------------88888888-88888888-(x1)-|
E|-------------------------99999999-11-11-11-11-11-11-11-11------------------------|

Verse:

G|---------------------------------------------------------------------------------|
D|---------------------------------------------------------------------------------|
A|--55555555-55555555-88888888-88888888-(x2)---------------------------------------|
E|-------------------------------------------99999999-11-11-11-11-11-11-11-11------|

G|---------------------------------------------------------------------------------|
D|---------------------------------------------------------------------------------|
A|--99999999-99999999-(x1)----------------------------------88888888-8888888-(x1)--|
E|-------------------------99999999-11-11-11-11-11-11-11-11------------------------|

Bass Stops: 4:26
Добавлено: 07.08.2015
Вам также может быть интересно:
Другие материалы по этой песне:
  • Аккорды и текст

Страница создана 07.08.2015
http://primanota.ru/frozen-autumn/again-chords.htm
Привет, Гость.
Предлагаем пройти революционный курс по гитаре.
Подарок от PrimaNota.Ru, забирай!