PrimaNota.ru - самый крупный в мире бесплатный архив песенных текстов, аккордов, табулатур и нот


Frontside - Nie Ma Chwachy Bez Cierpienia - таба

Регистрация Запомнить меня
Войти через:  Facebook Google Twitter Vk Yandex Mail.ru

Frontside - Nie Ma Chwachy Bez Cierpienia - таба

Печатать
Просмотров: 94
Frontside - Nie ma chwały bez cierpienia
ze sluchu

Gitara 1

E---------------------------------|
B---------------------------------|
G-7-7-7-7-6-6-6-6-9-9-9-9-7-7-7-7-|  x10
D---------------------------------|
A---------------------------------|
E---------------------------------|

Gitara 2

E---------------|
B---------------|
G---------------|   x2
D-4----4-5------|
A-4----4-5------|
E-2----2-3------|

E------------------|
B------------------|
G------------------|
D-4-4-4---4-4-4-4--|
A-4-4-4---4-4-4-4--|
E-2-2-2---2-2-2-2--|

Gitara 1

E-------------------------------------------|
B-------------------------------------------|
G-------------------------------------------|
D-------------------------------------5-4---|
A-2-0-2-3-0-2----2-0-2-5-4-5----5-4-5-----5-|
E-------------------------------------------|

Czuję, że żyje!

Gitara 2

E---------------|
B---------------|
G---------------|
D-4-2-3--4-2-3--|
A-4-2-3--4-2-3--|
E-2-0-1--2-0-1--|


Zwrotka


Pogrzebałem upływ czasu...
E-------------------------------------------|
B-------------------------------------------|
G-------------------------------------------|
D---------------------------5-4-2-4-2-------|
A--2-2--2-5--5-4-5-4-5-2-2------------5-4-5-|
E-------------------------------------------|


Ku pamięci martwych...
E-------------------------------------------|
B-------------------------------------------|
G-------------------------------------------|
D---------------------------5-4-2-4-2-------|
A--2-2--2-5--5-4-5-4-5-2-2------------5-4-5-|
E-------------------------------------------|


Nigdy nie złamiesz mnie...
E---------------------------------------------------------|
B---------------------------------------------------------|
G-7-7-7-7-6-6-6-6-9-9-9-9-7-7-7-7-12-12-12-12-11-11-11-11-|
D---------------------------------------------------------|
A---------------------------------------------------------|
E---------------------------------------------------------|

E---------------------|
B---------------------|
G---------------------|
D-5--7--5--5--7--8--5-|
A-5--7--5--5--7--8--5-|
E-3--5--3--3--5--6--3-|

by: migfulcrum


Czuję, że żyje!
Pogrzebałem upływ czasu mierzony stratami
Stłumiony szloch ucichł już zagłuszony okrzykiem tryumfu
Zakurzonych wspomnień pełnych niepowodzeń nie pamiętam już, a 
lepiej
Uwierz w moje słowa - Niemożliwym jest położyć kres wszelkiej nadziei
Bezmyślnie wygłaszasz kazania - Łzy nie przywrócą życia umarłym
Ku pamięci martwych i żyjących - Nie ma chwały bez cierpienia
W mym królestwie potępienia - Nie ma chwały bez cierpienia

Nigdy nie złamiesz mnie - Nie złamiesz - Nie złamiesz
Nie poddam nigdy się - Nie poddam - Nie poddam
Nie złamiesz mnie! - Nie!

Czuję, że żyje!
Topiąc marzenia umieramy zbyt młodo
Zapamiętaj to!
Po wsze czasy zachowaj w sercu
Marzenia zdeptane w zarodku mogą zawsze spłodzić nowy plon
A ty możesz przecież zacząć żyć jak chcesz! Jak chcesz!
Bezmyślnie wygłaszasz kazania - Łzy nie przywrócą życia umarłym
Ku pamięci martwych i żyjących - Nie ma chwały bez cierpienia
W mym królestwie potępienia - Nie ma chwały bez cierpienia

Nigdy nie złamiesz mnie - Nie złamiesz - Nie złamiesz
Nie poddam nigdy się - Nie poddam - Nie poddam
Nie złamiesz mnie - Nie!
Добавлено: 16.07.2012
Вам также может быть интересно:
Другие материалы по этой песне:
  • Аккорды и текст

Страница создана 16.07.2012
http://primanota.ru/frontside/nie-ma-chwachy-bez-cierpienia-chords.htm
Привет, Гость.
Предлагаем пройти революционный курс по гитаре.
Подарок от PrimaNota.Ru, забирай!