PrimaNota.ru - самый крупный в мире бесплатный архив песенных текстов, аккордов, табулатур и нот


From Zero - Check Ya - текст песни, бас-таба, видео

Регистрация Запомнить меня
Войти через:  Facebook Google Twitter Vk Yandex Mail.ru

From Zero - Check Ya - текст песни, бас-таба, видео

Печатать
Просмотров: 159
Уроки эстрадного вокала в Санкт-Петербурге
From Zero - Check Ya
Submitted By: Ryan Mueller
One Nation Under

The tuning for this song is C-A-D-G. The bassist usually uses a 5-string but I tabbed it out for a 4-string.
Intro:
G-----------------------------------------------------------------------------------------------------------------------------
D-----------------------------------------------------------------------------------------------------------------------------
A----------3—3----------------3—3—3—3--------3—3--------4—4—4—4—1------------------------------------
C---0—0--------0—0--0—0-----------------0—0--------0—0---------------------------------------------------------

Verse:
G-----------------------------------------------------------------------------------------------------------------------------
D-----------------------------------------------------------------------------------------------------------------------------
A-----------------------------------------------------------------------------------------------------------------------------
C—2—3—3—3—5----2—3—5—3—0----2—3—3—3—5—9—7—5—7—5—0-----------------------------

G-----------------------------------------------------------------------------------------------------------------------------
D-----------------------------------------------------------------------------------------------------------------------------
A-----------------------------------------------------------------------------------------------------------------------------
C---2—3—3—3—5---2---3---5—3—0---2---3---3---3---5----2----------------------------------------------------

Chorus:
G-----------------------------------------------------------------------------------------------------------------------------
D-----------------------------------------------------------------------------------------------------------------------------
A-----------------------2—2—2---2------------------------------------------------------0—0—0—0---0—0--------------------------
C---7—7---7---7-----------------------7—7—7—7---7\4—4—4—4---4---4---4-------------------------------------777777

Verse 2:
G-----------------------------------------------------------------------------------------------------------------------------
D-----------------------------------------------------------------------------------------------------------------------------
A-----------------------------------------------------------------------------------------------------------------------------
C----0—2-----2--------2-----2---------------------------------------------------------------------------------------------
===========          From Zero
          Check Ya [with a bomb]
          Luke Brown moxshyfter@yahoo.com
          DADG
          
          Main Riff
          G:---------------
          D:---------------
          A:---------------
          D:0/3-2-3-2-3-3h4
          Im not 100% on this, but i think its close 
          
          Verse [really fast]
          G:-----------------------------------------------
          D:-----------------------------------------------
          A:3p2-3p2-3p2-3p2-3p2-3p2-3p2-3p2-4p3-4p3-4p3-0h2
          D:-----------------------------------------------
          
          Verse [cont]
          G:---------------|---------------
          D:---------------|---------------
          A:---------------|-3-5--33--5-3-5
          D:0-2-2h3--0-2-x-|---------------
                                  ^^ these may be muted, but the guitar plays this note
          
            T P P T P P T P T PPPPPP  T   PP T   PP T   P T   PPPPPP
          G:-------------------------|----77-----77-----7-----777777
          D:-------------------------|------------------------------
          A:--5-5---5-5---5---555555-|0h5----0h5----0h5---0h5-------
          D:0-----0-----0---x--------|------------------------------
          
          The outro riff is basically the same as this one ^ but the first part has a different
          timing to it....i think thats it for the song....pretty kick ass tune.....lemme know 
          if you got any corections or comments
          ROCK ON ;)
          moxshyfter@yahoo.com
Добавлено: 30.04.2012
Другие материалы по этой песне:

Страница создана 14.03.2012
http://primanota.ru/from-zero/check-ya-chords.htm
Привет, Гость.
Предлагаем пройти революционный курс по гитаре.
Подарок от PrimaNota.Ru, забирай!