PrimaNota.ru - самый крупный в мире бесплатный архив песенных текстов, аккордов, табулатур и нот


From The Shallows - The Chalice Of Mankind - таба, видео

Регистрация Запомнить меня
Войти через:  Facebook Google Twitter Vk Yandex Mail.ru

From The Shallows - The Chalice Of Mankind - таба, видео

Печатать
Просмотров: 95
                            -From The Shallows-
                           The Chalice of Mankind
                            Beyond The Unknown

Tabbed by  @,..,@

                   Sorry but theres no solo in here but i do have the riffs
                   played behind it.  Listen for timing.

Key    T = Temelo Pick  X = Palm Mute /// = Slide Down (Drop A# tuning)

Riff Order
         Riff A x2
         Riff B x2
         Breakdown A x2
         Transition 1
         Riff C x4
         Riff D x4
         Riff C x2
         Transition 2
         Breakdown B x4
         Transition 3
         Breakdown B x3
         Riff A x2
         Riff B x2
         Transition 1
         Riff E x4
         Breakdown B x5
         The End
Riff A
|------------------------|------------------------||
|------------------------|------------------------||
|------------------------|------------T-----T-----||
|------------------------|------------------------||
|0-0-0-5-7-8-0-0-0-0-0-0-|0-0-0-5-7-8-------5-----||
|0-0-0-------0-0-0-0-0-0-|0-0-0-------8-----------||
 x x x       x x x x x x  x x x

Riff B
|--------------------------|--------------------------||
|--------------------------|--------------------------||
|--------------------------|--------------T-----T-----||
|--------------------------|--------------------------||
|0-0-0-8-10-12-0-0-0-0-0-0-|0-0-0-8-10-12-------5-----||
|0-0-0---------0-0-0-0-0-0-|0-0-0---------8-----------||
 x x x         x x x x x x  x x x

Transition 1   Breakdown A
|------------||----------------------------------------------------------|
|------------||----------------------------------------------------------|
|T-----T-----||----------------------------------------------------------|
|------------||----------------------------------------------------------|
|------4-----||0-0-0-----0-0-0-0-0-0-0-0-0-------0-0-0-0-0-0-0-0-0-------|
|7-----------||0-0-0-----0-0-0-0-0-0-0-0-0-------0-0-0-0-0-0-0-0-0-------|
               x x x     x x x x x x x x x       x x x x x x x x x


------------------------------------||
------------------------------------||
------------T-----T-----T-----T-----||
------------------------------------||
0-0-0-0-0-0-------5-----------4-----||
0-0-0-0-0-0-8-----------7-----------||
x x x x x x

Riff C
|------------------------------------------||
|------------------------------------------||
|------------------T-----T-----T-----T-----||
|------------------------------------------||
|5-5-5-8-7-4-4-4-4-------5-----------4-----||
|------------------0-----------0-----------||

Riff D
|-------------------------------------------------------------------||
|-------------------------------------------------------------------||
|T---T---T---T---T---T---T---T---T---T---T---T---T----T----T----T---||
|----------------7--------------------------------------------------||
|--------5---8-------8---7---8-------8---7---5--------12---10---8---||
|0---7---------------------------8---------------10-----------------||


Transition 2        Breakdown B                         Transition 3
|-----------------||----------------------------------||-------------------|
|-----------------||----------------------------------||-------------------|
|-----------------||----------------------------------||-------------------|
|-----------------||0------------------0--------------||-----0-------------|
|5-------4---8----||0---000--000-0-0-0-0--000--00-00--||-----0----0-0-0----|
|-----------------||0---000--000-0-0-0-0--000--00-00--||-----0----0-0-0----|
                    x   xxx  xxx x x x x  xxx  xx xx         x    x x x

----------------------||
----------------------||
----------------------||
---------------5\\\\\-||
0-0-0-0-0-0-0--5\\\\\-||
0-0-0-0-0-0-0--5\\\\\-||
x x x x x x x

Riff E
|----------------------------------------------------------------||
|----------------------------------------------------------------||
|----------------------------------------T-----T-----T-----T-----||
|----------------------------------------------------------------||
|8--8--8--8--8--8--8--1010107--7--7--7---------5-----------4-----||
|-00-00-00-00-00-00----------00-00-00-00-8-----------7-----------||
  xx xx xx xx xx xx          xx xx xx xx
Добавлено: 08.04.2012
Другие материалы по этой песне:

Страница создана 08.04.2012
http://primanota.ru/from-the-shallows/the-chalice-of-mankind-chords.htm
Привет, Гость.
Предлагаем пройти революционный курс по гитаре.
Подарок от PrimaNota.Ru, забирай!