PrimaNota.ru - самый крупный в мире бесплатный архив песенных текстов, аккордов, табулатур и нот


From The Shallows - Beyond The Unknown - таба, видео

Регистрация Запомнить меня
Войти через:  Facebook Google Twitter Vk Yandex Mail.ru

From The Shallows - Beyond The Unknown - таба, видео

Печатать
Просмотров: 103
----------------------------------------------------------------------------
                  Beyond The Unknown - From The Shallows
----------------------------------------------------------------------------

Tabbed by: Alain Cloutier
Email: six_inch_of_bl0od@hotmail.com

Tuning: A#,F,A#,D#,G,C

| /  slide up
| \  slide down
| h  hammer-on
| p  pull-off
| ~  vibrato
| +  harmonic
| x  Mute note
| .  Palm Mute


Guitar 1,2 (185 bpm)
C |-------------------------------------------------------------------------
G |-------------------------------------------------------------------------
D#|-------------------------------------------------------------------------
A#|-------------------------------------------------------------------------
F |--5------------7-----8-----10-----------12----10----8------------7-------
A#|-----0-0-0--0-----0-----0-----0-0-0--0-----0-----0-----0-0-0--0-----0-0-0
        . . .  .     .     .     . . .  .     .     .     . . .  .     . . .


C  -------------------------------|
G  -------------------------------|
D# -------------------------------| 4x
A# -------------------------------|
F  ----5------------3-3-3--1-1-1--|
A# -0-----0-0-0--0--3-3-3--1-1-1--|
    .     . . .  .  . . .  . . .


Guitar 1,2 (130bpm)
C |----------------------------------------------------|
G |----------------------------------------------------|
D#|----------------------------------------------------| 2x
A#|----------------------------------------------------|
F |--0-----------0-0-0---0---0--0-0-0-0-0-0-0---0---0--|
A#|--0-----------0-0-0---0---0--0-0-0-0-0-0-0---0---0--|
                 . . .   .   .  . . . . . .     .   .


Guitar 1
C |-------------------------------------------------------------------------
G |-------------------------------------------------------------------------
D#|-/10-------------7---------------------------------/12--------------9----
A#|-------------------------------------------------------------------------
F |-/8--------------5---------------------------------/10--------------7----
A#|-------------------------------------------------------------------------

Guitar 2
C |-----------------------------------------------------------------------
G |-----------------------------------------------------------------------
D#|-----------------------------------------------------------------------
A#|-----------------------------------------------------------------------
F |--0-----------0-0-0---0---0--0-0-0-0-0-0-0---0---0--0-----------0-0-0--
A#|--0-----------0-0-0---0---0--0-0-0-0-0-0-0---0---0--0-----------0-0-0--
                 . . .   .   .  . . . . . .     .   .


Guitar 1
C  -------------------------------|
G  -------------------------------|
D# -------------------------------| 2x
A# -------------------------------|
F  -------------------------------|
A# -------------------------------|

Guitar 2
C  -------------------------------|
G  -------------------------------|
D# -------------------------------| 2x
A# -------------------------------|
F  -0---0--0-0-0-0-0-0-0---0---0--|
A# -0---0--0-0-0-0-0-0-0---0---0--|
    .   .  . . . . . .     .   .


Guitar 1,2 
C |----------------------------------------------------|
G |----------------------------------------------------|
D#|----------------------------------------------------| 2x
A#|----------------------------------------------------|
F |--0-----------0-0-0---0---0--0-0-0-0-0-0-0---0---0--|
A#|--0-----------0-0-0---0---0--0-0-0-0-0-0-0---0---0--|
                 . . .   .   .  . . . . . .     .   .


Guitar 1,2 
C |----------------------------------------------------|
G |----------------------------------------------------|
D#|----------------------------------------------------| 
A#|----------------------------------------------------|
F |--0-------------------------------------------------|
A#|--0-------------------------------------------------|



Guitar 1,2 (110bpm)
C |----------------------------------------------------|
G |----------------------------------------------------|
D#|----------------------------------------------------| 4x
A#|----------------------------------------------------|
F |--0-----------0-0-0---0---0--0-0-0-0-0-0-0---0---0--|
A#|--0-----------0-0-0---0---0--0-0-0-0-0-0-0---0---0--|
                 . . .   .   .  . . . . . .     .   .


Guitar 1,2 
C |----------------------------------------------------|
G |----------------------------------------------------|
D#|----------------------------------------------------| 
A#|----------------------------------------------------|
F |--0-------------------------------------------------|
A#|--0-------------------------------------------------|

END

First Tabs ive done, missing the little intro part im working on it.
I hope you like it ! 

============================================================================
Добавлено: 15.05.2012
Другие материалы по этой песне:

Страница создана 04.04.2012
http://primanota.ru/from-the-shallows/beyond-the-unknown-chords.htm
Привет, Гость.
Предлагаем пройти революционный курс по гитаре.
Подарок от PrimaNota.Ru, забирай!