PrimaNota.ru - самый крупный в мире бесплатный архив песенных текстов, аккордов, табулатур и нот


From Our Hands - The Noise - таба, видео

Регистрация Запомнить меня
Войти через:  Facebook Google Twitter Vk Yandex Mail.ru

From Our Hands - The Noise - таба, видео

Печатать
Просмотров: 85
Уроки эстрадного вокала в Санкт-Петербурге
-------------------------------------------------------------------------------
                            The Noise - From Our Hands
-------------------------------------------------------------------------------
1st guitar, learn this Leo please

Tuning: D-drop and Half-step down

Intro:

e|---------------------------------------------------------------------------|
B|---------------------------------------------------------------------------|
G|---4-5---------------4-5---/7----------------------------------------------|
D|-0-4-5-------------0-4-5---------------------------------------------------|   x4
A|-0-2-3-------------0-2-3------3p0-5----------------------------------------|
E|-0------5p3-3h5p3--0-------------------------------------------------------|

Verse:

e|-----------------------------------------------------------------------------------------|
B|-----------------------------------------------------------------------------------------|
G|-10p7-----10p7-----10p7------9p7------9p7-----9p7----------------------------------------|
D|---------------------------------------------------------9p0-----9p0----9p0--------8---3-| x2       
A|-----------------------------------------------------------------------------------8---3-|
E|-----10p0-----10p0-----10p0-----10p0-----10p0----10p0-------10p0----10p0---10p0----8---3-|


Pre-chorus:
e|---------------------------------------------------------------------------|
B|---------------------------------------------------------------------------|
G|---------------------------------------------------------------------------|
D|8---3--5-------------------------------------------------------------------|
A|8---3--5-------------------------------------------------------------------|
E|8---3--5-------------------------------------------------------------------|

Chorus:
e|---------------------------------------------------------------------------|
B|---------------------------------------------------------------------------|
G|---4-5---------------------------------------------------------------------|
D|-0-4-5------3-3-5-5-5------------------------------------------------------|  
A|-0-2-3------3-3-5-5-5------------------------------------------------------|
E|-0----------3-3-5-5-5-3h5p3------------------------------------------------|

e|---------------------------------------------------------------------------|
B|---------------------------------------------------------------------------|
G|---4-5----------------------------------------------14--17-----------------|
D|-0-4-5------3-3-5-5-5-5-5------8-----5-------8-----------------------------|  
A|-0-2-3------3-3-5-5-5-5-5------8-----5-------8------12--15-----------------|
E|-0----------3-3-5-5-5-5-5------8-----5-------8-----------------------------|


Intro again:

e|---------------------------------------------------------------------------|
B|---------------------------------------------------------------------------|
G|---4-5---------------4-5---/7----------------------------------------------|
D|-0-4-5-------------0-4-5---------------------------------------------------|   x2
A|-0-2-3-------------0-2-3------3p0-5----------------------------------------|
E|-0------5p3-3h5p3--0-------------------------------------------------------|

Verse: 

e|------------------------------------------------------------------------------|
B|------------------------------------------------------------------------------|
G|------------------------------------------------------------------------------|
D|--12p0---12p0 -0-000----12p0----12p0-10-000------12p0---12p0-9-000----8--3----|   x2
A|---------------0-000-----------------10-000------------------9-000----8--3----|
E|---------------0-000-----------------10-000------------------9-000----8--3----|
                   ...                    ...                    ...

Pre-chorus again:
e|---------------------------------------------------------------------------|
B|---------------------------------------------------------------------------|
G|---------------------------------------------------------------------------|
D|8---3--5-------------------------------------------------------------------|
A|8---3--5-------------------------------------------------------------------|
E|8---3--5-------------------------------------------------------------------|

Chorus again:
e|---------------------------------------------------------------------------|
B|---------------------------------------------------------------------------|
G|---4-5---------------------------------------------------------------------|
D|-0-4-5------3-3-5-5-5------------------------------------------------------|  
A|-0-2-3------3-3-5-5-5------------------------------------------------------|
E|-0----------3-3-5-5-5-3h5p3------------------------------------------------|

e|---------------------------------------------------------------------------|
B|---------------------------------------------------------------------------|
G|---4-5----------------------------------------------14--17-----------------|
D|-0-4-5------3-3-5-5-5-5-5------8-----5-------8-----------------------------|  
A|-0-2-3------3-3-5-5-5-5-5------8-----5-------8------12--15-----------------|
E|-0----------3-3-5-5-5-5-5------8-----5-------8-----------------------------|


Bridge:
e|---------------------------------------------------------------------------|
B|---------------------------------------------------------------------------|
G|---------------------------------------------------------------------------| x2
D|-0-0-0-10-10-10-9-9-9-3-3-3------------------------------------------------|
A|-0-0-0-10-10-10-9-9-9-3-3-3------------------------------------------------|
E|-0-0-0-10-10-10-9-9-9-3-3-3------------------------------------------------|

e|-------------------------------------------------|
B|-------------------------------------------------|
G|-------------------------------------------------|
D|-8-8--0-000--10-10--0-00-------------------------|  x2
A|-8-8--0-000--10-10--0-00-------------------------|
E|-8-8--0-000--10-10--0-00-------------------------|



e|-----------------------------|
B|-----------------------------|
G|-5--7~-----------------------|
D|-------- PAUSE---------------|  
A|-----------------------------|
E|-----------------------------|

e|---------|   --------------|   --------------------|
B|---------|   --------------|   --------------------|
G|-7p5 ----|   --------------|   --------------------|
D|-----00--| x6--------------| x4--00-00-------------|
A|-----00--|   --------------|   --00-00-------------|
E|-----00--|   ---3333 555---|   --00-00-------------|
       ..


Chorus once again:
e|---------------------------------------------------------------------------|
B|---------------------------------------------------------------------------|
G|---4-5---------------------------------------------------------------------|
D|-0-4-5------3-3-5-5-5------------------------------------------------------|  
A|-0-2-3------3-3-5-5-5------------------------------------------------------|
E|-0----------3-3-5-5-5-3h5p3------------------------------------------------|

e|---------------------------------------------------------------------------|
B|---------------------------------------------------------------------------|
G|---4-5----------------------------------------------14--17-----------------|
D|-0-4-5------3-3-5-5-5-5-5------8-----5-------8-----------------------------|  
A|-0-2-3------3-3-5-5-5-5-5------8-----5-------8------12--15-----------------|
E|-0----------3-3-5-5-5-5-5------8-----5-------8-----------------------------|

| /   slide up
| \   slide down
| h   hammer-on
| p   pull-off
| ~   vibrato
| +   harmonic
| x   Mute note
| b   Bend
| pb  Pre-bend
| br  Bend release
| pbr Pre-bend release
| brb Bend release bend

************************************
Добавлено: 25.12.2015
Другие материалы по этой песне:
  • Аккорды и текст

Страница создана 25.12.2015
http://primanota.ru/from-our-hands/noise-chords.htm
Привет, Гость.
Предлагаем пройти революционный курс по гитаре.
Подарок от PrimaNota.Ru, забирай!