PrimaNota.ru - самый крупный в мире бесплатный архив песенных текстов, аккордов, табулатур и нот


From Indian Lakes - We Follow - таба, бас-таба, видео

Регистрация Запомнить меня
Войти через:  Facebook Google Twitter Vk Yandex Mail.ru

From Indian Lakes - We Follow - таба, бас-таба, видео

Печатать
Просмотров: 137
Took hours to complete this. If you have any corrections please comment below!

Intro: "I took my time..."
E|--------------------------------------------------------------------------------------|
B|-----------------------------------------------------------9--------9--------9--------|
G|-----------------------------4--------4--------6-----6--------6--------6--------------|
D|-------------2------------4-----6--------6--9-----9-----9--------9--------9-----------| x4
A|-----2h4--------4--2/4h7-----------7--------------------------------------------------|
E|--2-------2---------------------------------------------------------------------0-----|

E|--------------------------------------------------------------------------------------|
B|--------------------------------------------------------------------------------------|
G|--------------------------------------------------------------------------------------|
D|--------2--------------------------2--------------------------------------------------| x2
A|-----------4--0--2--4--2--------------4--0--2--4--------------------------------------|
E|--0--2-----------------------0--2-----------------4-----------------------------------|

Verse 1: "I took them down..."
E|--------------------------|
B|--------------------------|
G|-----6--4--------6--4-----|
D|--4--6--4-----4--6--4-----| x2
A|--4--4--2-----4--4--2-----|
E|--2-----------2-----------|

"And if I never..."
E|--------------------------------------------------------------------------------------|
B|-----------------------------------------------------------9--------9--------9--------|
G|-----------------------------4--------4--------6-----6--------6--------6--------------|
D|-------------2------------4-----6--------6--9-----9-----9--------9--------9-----------| x2
A|-----2h4--------4--2/4h7-----------7--------------------------------------------------|
E|--2-------2---------------------------------------------------------------------0-----|

E|-----------------------------------------     ----------------------------7-----------|
B|----------------------5------------------     -------------5-----------5-----5--------|
G|-------------6-----------6-----4--6------     -----4/6--------6--4--------------4-----|
D|----------------9--6--------7------------ x2  --0-------0-----------0-----------------|
A|-----7/9---------------------------------     ----------------------------------------|
E|--5-------5------------------------------     ----------------------------------------|

E|-----------------------------------------     ----------------------------7-----------|
B|----------------------5------------------     -------------5-----------5-----5--------|
G|-------------6-----------6-----4--6------     -----4/6--------6--4--------------4-----|
D|----------------9--6--------7------------ x2  --0-------0-----------0-----------------|
A|-----7/9---------------------------------     ----------------------------------------|
E|--5-------5------------------------------     ----------------------------------------|

"And I guess my time..."
E|--------------------------------------------------------------------------------------|
B|--------------------------------------------------------------------------------------|
G|--------------------------------------------------------------------------------------|
D|--------2-----------------------------------------------2-----------------------------| x2
A|-----------4--0--2--4--2-----4-4-4-4-4-4-4-----------------4--0--2--4-----------------|
E|--0--2--------------------------------------------0--2-----------------4--------------|

E|--------------------------------------------------------------------------------------|
B|--------------------------------------------------------------------------------------|
G|--4--x-4-4--4-x-x-x-x-x-x-x-x-4--x-4-4--4-x-x-x-x-x-----------------------------------|
D|--4--x-4-4--4-x-x-x-x-x-x-x-x-4--x-4-4--4-x-x-x-x-x-7\4--------2/4--------4-----------|
A|--2--x-2-2--2-x-x-x-x-x-x-x-x-2--x-2-2--2-x-x-x-x-x-7\4--------2/4--------4-----------|
E|----------------------------------------------------5\2--------0/2--------2-----------|

Solo
E|--------------------------------------------------------------------------------------|
B|--------------------------------------------------------------------------------------|
G|--13-13-13----------------------------------------------------------------------------|
D|-----------14-14-14-12-12-11-11-11----------------------------------------------------|
A|-----------------------------------12-12-12-11-11-9-9-9-------------------------------|
E|--------------------------------------------------------12-12-12-9-10-9-9-9-5-5-5-5-5-|

E|--------------------------------------------------------------------------------------|
B|--------------------------------------------------------------------------------------|
G|----------------------------------6-6-6-------6-6-------------------------------------|
D|--6-6-6-----------4-4-4-----------------7-7-7-----------------------------------------|
A|--------7-7-7-7-7-------5-5-5-5-5-------------------9-9-9-9-7-------------------------|
E|--------------------------------------------------------------9-----------------------|

E|--------------------------------------------------------------------------------------|
B|--------------------------------------------------------------------------------------|
G|--13-13-13----------------------------------------------------------------------------|
D|-----------14-14-14-12-12-11-11-11----------------------------------------------------|
A|-----------------------------------12-12-12-11-11-9-9-9-------------------------------|
E|--------------------------------------------------------12-12-12-9-10-9-9-9-5-5-5-5-5-|

E|--------------------------------------------------------------------------------------|
B|--------------------------------------------------------------------------------------|
G|----------------------------------6-6-6-------6-6-------------------------------------|
D|--6-6-6-----------4-4-4-----------------7-7-7-----------------------------------------|
A|--------7-7-7-7-7-------5-5-5-5-5-----------------------------------------------------|
E|--------------------------------------------------------------------------------------|

"Some more, I would've loved some more..."
E|--------------------------------------------------------------------------------------|
B|--------------------------------------------------------------------------------------|
G|--4---4---4--4--4--4--4---4---4---4--4--4--4-4-4-4------------------------------------|
D|--4---4---4--4--4--4--4---4---4---4--4--4--4-4-4-4------------------------------------|
A|--2---2---2--2--2--2--2---2---2---2--2--2--2-2-2-2------------------------------------|
E|--------------------------------------------------------------------------------------|

"I though I knew you..."
E|-----------------------------------------     ----------------------------7-----------|
B|----------------------5------------------     -------------5-----------5-----5--------|
G|-------------6-----------6-----4--6------     -----4/6--------6--4--------------4-----|
D|----------------9--6--------7------------ x2  --0-------0-----------0-----------------|
A|-----7/9---------------------------------     ----------------------------------------|
E|--5-------5------------------------------     ----------------------------------------|

E|-----------------------------------------     ----------------------------7-----------|
B|----------------------5------------------     -------------5-----------5-----5--------|
G|-------------6-----------6-----4--6------     -----4/6--------6--4--------------4-----|
D|----------------9--6--------7------------ x2  --0-------0-----------0-----------------|
A|-----7/9---------------------------------     ----------------------------------------|
E|--5-------5------------------------------     ----------------------------------------|

E|-----------------------------------------     ----------------------------7-----------|
B|----------------------5------------------     -------------5-----------5-----5--------|
G|-------------6-----------6-----4--6------     -----4/6--------6--4--------------4-----|
D|----------------9--6--------7------------ x2  --0-------0-----------0-----------------|
A|-----7/9---------------------------------     ----------------------------------------|
E|--5-------5------------------------------     ----------------------------------------|

E|-----------------------------------------     ----------------------------------------|
B|----------------------5------------------     -------------5--------------------------|
G|-------------6-----------6-----4--6------     -----4/6--------6--4--------------------|
D|----------------9--6--------7------------ x2  --0-------0-----------------------------|
A|-----7/9---------------------------------     ----------------------------------------|
E|--5-------5------------------------------     ----------------------------------------|

A lot of strumming here so I didn't include the extra notes.
E|--------12--------------------------------12------------------------------------------|
B|------------14-----10--12--14--12-------------14-----10--12--10--9-----12-------------|
G|--9/11------------------------------9/11----------------------------------------------|
D|--------------------------------------------------------------------------------------|
A|--------------------------------------------------------------------------------------|
E|--------------------------------------------------------------------------------------|

E|--------12---------------------------------------12-----------------------------------|
B|------------14-----10--12--14--12-----14-------------14--10--12--10--9-----12b-12-----|
G|--9/11-------------------------------------9/11---------------------------------------|
D|--------------------------------------------------------------------------------------|
A|--------------------------------------------------------------------------------------|
E|--------------------------------------------------------------------------------------|
Добавлено: 06.06.2016
Другие материалы по этой песне:
  • Аккорды и текст

Страница создана 14.09.2013
http://primanota.ru/from-indian-lakes/we-follow-chords.htm
Привет, Гость.
Предлагаем пройти революционный курс по гитаре.
Подарок от PrimaNota.Ru, забирай!