PrimaNota.ru - самый крупный в мире бесплатный архив песенных текстов, аккордов, табулатур и нот


From Indian Lakes - Paintings - таба, видео

Регистрация Запомнить меня
Войти через:  Facebook Google Twitter Vk Yandex Mail.ru

From Indian Lakes - Paintings - таба, видео

Печатать
Просмотров: 92
-------------------------------------------------------------------------------
                             PAINTINGS - From Indian Lakes
-------------------------------------------------------------------------------
  intro
e|----------------------|
B|--------------x4------|
G|-------0--------------|
D|---3------3-----------|
A|-5---5----------------|
E|----------------------|

  verse
e|---------------------------------------------------------------------------|
B|--------------x4---------------x2---------------x2-------------------------|
G|-------0-------------------------------------------------------------------|
D|---3------3---------------5-----------------2------------------------------|
A|-5---5----------------5-----5-----------3-----3----------------------------|
E|--------------------3---3-------------1---1--------------------------------|

e|------------------------------------------------------------------------------|
B|------------------------------------------------------------------------------|
G|----5-------------------------------------------------------------------------|
D|----3----5-----2--------------------------------------------------------------|
A|----5----5-----3--------------------------------------------------------------|
E|---------3-----1--------------------------------------------------------------|

to be continued
you can guess the rest of the song from this :)


************************************

| /   slide up
| \   slide down
| h   hammer-on
| p   pull-off
| ~   vibrato
| +   harmonic
| x   Mute note
| b   Bend
| pb  Pre-bend
| br  Bend release
| pbr Pre-bend release
| brb Bend release bend

************************************
Добавлено: 02.09.2015
Другие материалы по этой песне:
  • Аккорды и текст

Страница создана 02.09.2015
http://primanota.ru/from-indian-lakes/paintings-chords.htm
Привет, Гость.
Предлагаем пройти революционный курс по гитаре.
Подарок от PrimaNota.Ru, забирай!