PrimaNota.ru - самый крупный в мире бесплатный архив песенных текстов, аккордов, табулатур и нот


From Indian Lakes - Ghost - таба, видео

Регистрация Запомнить меня
Войти через:  Facebook Google Twitter Vk Yandex Mail.ru

From Indian Lakes - Ghost - таба, видео

Печатать
Просмотров: 35
This is thee tapping part of the song which can be heard in the background. I have put 'T' above all notes
that are played with the tapping finger. All slides and pull offs are to be done with the tapping finger.

Hold this chord:

E|--5--
B|--5--
G|--7--
D|--7--
A|-----
E|-----

And repeat the following pattern:

   T     T T       T T     T     T T      T T
E|-12p5-------------------------------------------
B|-------10s12p5----------------------------------
G|----------------12s11p7-----------------12s11p7-
D|-------------------------12p7--12s14p7----------
A|------------------------------------------------
E|------------------------------------------------

  T     T T       T T     T     T T      T T
E|-12p5-------------------------------------------
B|-------10s12p5----------------------------------
G|----------------12s11p7-----------------12s16p7-
D|-------------------------12p7--12s14p7----------
A|------------------------------------------------
E|------------------------------------------------
Добавлено: 06.06.2016
Другие материалы по этой песне:
  • Аккорды и текст

Страница создана 06.06.2016
http://primanota.ru/from-indian-lakes/ghost-chords.htm
Привет, Гость.
Предлагаем пройти революционный курс по гитаре.
Подарок от PrimaNota.Ru, забирай!