PrimaNota.ru - самый крупный в мире бесплатный архив песенных текстов, аккордов, табулатур и нот


From Indian Lakes - The Bells - таба, видео

Регистрация Запомнить меня
Войти через:  Facebook Google Twitter Vk Yandex Mail.ru

From Indian Lakes - The Bells - таба, видео

Печатать
Просмотров: 89
Уроки эстрадного вокала в Санкт-Петербурге
-------------------------------------------------------------------------------
                             The Bells - From Indian Lakes
-------------------------------------------------------------------------------

Tabbed by: FSH14

Tuning: Standard

Intro:
e|----------------------------------------------------------------------------|
B|----------------------------------------------------------------------------|
G|--------0---------------0----------------0----------------0-----------------|
D|----4-------4---4---4-------4---4----4-------4---4---4---------4---4--------|
A|--5---5---5---5---5---5---5---5---------------------------------------------|
E|-----------------------------------5---5---5---5---5---5-----5---5----------|

e|---------------------------------------------------------------------------|
B|---------------------------------------------------------------------------|
G|---------------------------------------------------------------------------|
D|-------4----------------4-----------------4----------------5p4-------------|
A|---5-------5---5---5---------5---5---5---------5---5---5-------5-----------|
E|-3---3---3---3---3---3-----3---3---3---3-----3---3---3---3-------3---------|

Verse 1:
e|---------------------------------------------------------------------------|
B|---------------------------------------------------------------------------|
G|--------0---------------0----------------0----------------0----------------|
D|----4-------4---4---4-------4---4----4-------4---4---4--------4---4--------|
A|--5---5---5---5---5---5---5---5--------------------------------------------|
E|-----------------------------------5---5---5---5---5---5----5---5----------|

e|---------------------------------------------------------------------------|
B|---------------------------------------------------------------------------|
G|---------------------------------------------------------------------------|
D|-------4----------------4-----------------4-----------------4--------------|
A|---5-------5---5---5---------5---5---5---------5---5---5---------5---5-----|
E|-3---3---3---3---3---3-----3---3---3---3-----3---3---3---3-----3---3-------| (X4)

The whole song is pretty much the same thing besides 
the instrumentals and the second guitar part.
I'll try to tab the whole song out soon.

Lyrics:

And I walk the long way home again
I was afraid that you would see my face
and ask me where I've been
And I wait for something to begin
but I'm getting older and
my days are wearing oh, so thin.

To the creek where we fell in again
but I fell in again
and I pulled you in as well.
but I don't think I could've learned to swim
without you there to keep my head up
long enough to breath the air that you breathed too.

To the church where I cast out my sins
they said I could wash my feet,
but never walk again.
And we sit in the same seat every Sunday
but I couldn't hear a single word they said
while your hand is barely, barely touching mine.

Mmmmmmm

And I woke up in your room alone
I must have drifted off just staring at your clothes
Is he yours or is it someone else's now?
No matter the days away
I'll keep it ready
waiting for the day that you come home.

Mmmmmmm

************************************

| /   slide up
| \   slide down
| h   hammer-on
| p   pull-off
| ~   vibrato
| +   harmonic
| x   Mute note
| b   Bend
| pb  Pre-bend
| br  Bend release
| pbr Pre-bend release
| brb Bend release bend

************************************
Добавлено: 28.08.2014
Другие материалы по этой песне:
  • Аккорды и текст

Страница создана 28.08.2014
http://primanota.ru/from-indian-lakes/bells-chords.htm
Привет, Гость.
Предлагаем пройти революционный курс по гитаре.
Подарок от PrimaNota.Ru, забирай!