PrimaNota.ru - самый крупный в мире бесплатный архив песенных текстов, аккордов, табулатур и нот


From Indian Lakes - Awful Things - таба, видео

Регистрация Запомнить меня
Войти через:  Facebook Google Twitter Vk Yandex Mail.ru

From Indian Lakes - Awful Things - таба, видео

Печатать
Просмотров: 128
Half-step down, Standard tuning yo.
This is the best damn song. Enjoy. -KBsoloman5000

Oh, if you think this needs to be corrected anywhere, let a brother know.


It does this a lot. It doesn't sound so repetitive with the switching between full band 
and one guitar.
I'm going to be a little lazy with this, but just play with the song and you'll get it.

      "My thoughts..."
eb-------------------------------------|
Bb-------------------------------------|
Gb-4---4---4--4---4---4--4---4-4-4-44--|
Db-5---5---5--5---5---5--5---5-5-5-55--|
Ab-3---3---3--3---0---0--0---0-0-0-00--|
Eb-------------------------------------|
   d   d   d  d   d   d  d   d d d du

^This is cut a little short a few times in the song. Like I stated before, just listen 
for it and you'll feel it.

"Do I still look the same to you now..."
eb---------------------------------------|
Bb---------------------------------------|
Gb---------4~--------------4---x----5~---|
Db---------5~--------------5---x----7~---|
Ab---------5~--------------5---x----7~---|
Eb---------3~--------------3---x---------|

      "We slowly sink into cigarette ash..."
eb-------------------------------------|
Bb-------------------------------------|
Gb-4---4---4--4---4---4--4---4-4-4-44--|
Db-5---5---5--5---5---5--5---5-5-5-55--|
Ab-3---3---3--3---0---0--0---0-0-0-00--|
Eb-------------------------------------|
   d   d   d  d   d   d  d   d d d du

  "Can I lay back and close my eyes..."
eb---------------------------------------|
Bb---------------------------------------|
Gb---------4~---------------4---x---5~---|
Db---------5~---------------5---x---7~---|
Ab---------5~---------------5---x---7~---|
Eb---------3~---------------3---x--------|

      "Do do da, do do da, do..."
eb-------------------------------------|
Bb-------------------------------------|
Gb-4---4---4--4---4---4--4---4-4-4-44--|
Db-5---5---5--5---5---5--5---5-5-5-55--|
Ab-3---3---3--3---0---0--0---0-0-0-00--|
Eb-------------------------------------|
   d   d   d  d   d   d  d   d d d du

Bridge 2x      (click, click)               (click, click)
eb-------------------------------------------------------|
Bb-------------------------------------------------------|
Gb--7-----9--4----------------7-----9--4-----------------|
Db-------------------------------------------------------|
Ab-----------5-------------------------0-----------------|
Eb--8---8---------------------8---8----------------------|

... this is the chord going into the solo... haha
eb-------------|
Bb-------------|
Gb-4-----------|
Db-5-----------|
Ab-3-----------|
Eb-------------|


Super sweet jammy solo/lead riffage

eb-----3-7-3--------------------------------------------3-7-3---7h10p7-----------------7-----------------------|
Bb---5-------5---5-3---0----------0-3h5p3-0-----------5-------5--------10---8-8-8-8h10---10-8---------8-------8|
Gb-5----------------------2-2-0-2-------------2-0---5-----------------------------------------9-7-7h9-----7-9--|
Db-------------------------------------------------------------------------------------------------------------|
Ab-------------------------------------------------------------------------------------------------------------|
Eb-------------------------------------------------------------------------------------------------------------|

   2x
eb-------------------------------------------------------------|---------------|
Bb-12-12-12-12-12-12-8-8-8-8-8-8-12-12-12-12-12-12-8-8-8-3-3-3-|---8~----------|
Gb-12-12-12-12-12-12-9-9-9-9-9-9-12-12-12-12-12-12-9-9-9-4-4-4-|---9~----------|
Db-------------------------------------------------------------|---------------|
Ab-------------------------------------------------------------|---------------|
Eb-------------------------------------------------------------|---------------|

     "I saw your face in the mirror..."
eb-------------------------------------|
Bb-------------------------------------|
Gb-4---4---4--4---4---4--4---4-4-4-44--|
Db-5---5---5--5---5---5--5---5-5-5-55--|
Ab-3---3---3--3---0---0--0---0-0-0-00--|
Eb-------------------------------------|
   d   d   d  d   d   d  d   d d d du

"And I still hear your voice in my head..."
eb---------------------------------------|
Bb---------------------------------------|
Gb---------4-----4-------------4----5~---|
Db---------5-----5-------------5----7~---|
Ab---------5-----5-------------5----7~---|
Eb---------3-----3-------------3---------|
Добавлено: 09.06.2015
Другие материалы по этой песне:
  • Аккорды и текст

Страница создана 09.06.2015
http://primanota.ru/from-indian-lakes/awful-things-chords.htm
Привет, Гость.
Предлагаем пройти революционный курс по гитаре.
Подарок от PrimaNota.Ru, забирай!