PrimaNota.ru - самый крупный в мире бесплатный архив песенных текстов, аккордов, табулатур и нот


From Indian Lakes - Am I Alive - таба, видео

Регистрация Запомнить меня
Войти через:  Facebook Google Twitter Vk Yandex Mail.ru

From Indian Lakes - Am I Alive - таба, видео

Печатать
Просмотров: 122
-------------------------------------------------------------------------------
                             Am I Alive - From Indian Lakes
-------------------------------------------------------------------------------
Tabbed by:The Daxeman
E-mail:daxman24md@hotmail.com                                            
                   
Tuning:EADGBE
              
                  (REPEAT X6)
         
e|---------------------------------------------------------------------------|
B|--0-2-0-0-0-2-0- --2-4-2-2-2-4-2-------------------------------------------|
G|---------------------------------------------------------------------------|
D|2--2---2-2-2---- 0--0---2-2-2----------------------------------------------|
A|---------------------------------------------------------------------------|
E|---------------------------------------------------------------------------|
     (THEN REPEAT X4)        
on 4th repeat, stop 
             here>v<
e|----------------|-----------------------------------------------------------|
B|-----------0-2-0.-----2--------2--------------------------------------------|
G|--2-4-2--2--2---|---2--2--2-2---2-------------------------------------------|
D|----------------|-4--4---4-4-4----------------------------------------------|
A|0--0------------.-----------------------------------------------------------|
E|----------------|-----------------------------------------------------------| 

************************************

| /   slide up
| \   slide down
| h   hammer-on
| p   pull-off
| ~   vibrato
| +   harmonic
| x   Mute note
| b   Bend
| pb  Pre-bend
| br  Bend release
| pbr Pre-bend release
| brb Bend release bend

************************************
Добавлено: 09.06.2015
Другие материалы по этой песне:
  • Аккорды и текст

Страница создана 09.06.2015
http://primanota.ru/from-indian-lakes/am-i-alive-chords.htm
Привет, Гость.
Предлагаем пройти революционный курс по гитаре.
Подарок от PrimaNota.Ru, забирай!