PrimaNota.ru - самый крупный в мире бесплатный архив песенных текстов, аккордов, табулатур и нот


From First To Last - The He Man Woman Haters Club - таба, видео

Регистрация Запомнить меня
Войти через:  Facebook Google Twitter Vk Yandex Mail.ru

From First To Last - The He Man Woman Haters Club - таба, видео

Печатать
Просмотров: 192
Уроки эстрадного вокала в Санкт-Петербурге
-------------------------------------------------------------------------------
                        The He Man Woman Haters Club - From First To Last
-------------------------------------------------------------------------------
Tabbed by: Gio
Email:Dumpw33d_94@yahoo.com

Tuning: Drop D
  
Intro
e|----------------------------------------------------------------------|
B|----------------------------------------------------------------------|\
G|-----------7p5------------------10p8----------------------------------| \
D|-----7p5--------7p5------10p8-----------10p8--------------------------|  \
A|-555-----55---55-----888------88-----88-------------------------------|   \
D|-555-----55---55-----888------88-----88-------------------------------|
   ...     ..   ..     ...      ..     ..                                X4 

e|----------------------------------------------------------------------|   /
B|----------------------------------------------------------------------|  /
G|----------------------------------------------------------------------| /
D|-----5-7-----5-7-----2-3-----2-3--------------------------------------|/
A|-333-----333-----000-----000------------------------------------------|
D|-333-----333-----000-----000------------------------------------------|
   ...     ...     ...     ...
Verse
e|---------------------------------------------------------------------|
B|---------------------------------------------------------------------|\
G|---------------------------------------------------------------------| \
D|-----------0-3-2-0------------------0-3-2-0--------------------------|  \
A|-----0-2-3---------3-2-0------0-2-3----------3-2-0-------------------|   \
D|-3-5----------------------3-5----------------------------------------|
   . . . . . . . . . . . .  . . . . . . . . .  . . .                     X4

e|---------------------------------------------------------------------|
B|---------------------------------------------------------------------|   /
G|--------------7-5-4-5-4-2--------------7-5-4-5-4-2-------------------|  /
D|------0-2-3-5------------------0-2-3-5-------------------------------| /
A|--3-5----------------------3-5---------------------------------------|/
D|---------------------------------------------------------------------|
    . . . . . . . . . . . .  . . . . . . . . . . . .
 Chorus
e|---------------------------------------------------------------------|\
B|---------------------------------------------------------------------| \
G|---------------------------------------------------------------------| X2 
D|---7-------3-------0-------------------------------------------------| /
A|---7-X10---3-X10---0-X20---------------------------------------------|/
D|---7-------3-------0-------------------------------------------------|

e|---------------------------------------------------------------------|\
B|---------------------------------------------------------------------| \
G|---------------------------------------------------------------------| X2 
D|---7-7-77-7-7-77-3-----0-0-00-0-0-00-0-------------------------------| /
A|---7-7-77-7-7-77-3-X12-0-0-00-0-0-00-0-X12---------------------------|/
D|---7-7-77-7-7-77-3-----0-0-00-0-0-00-0-------------------------------|
         ..     .. .         ..     .. .
  Outro
e|-------------13-17-13------------------------------------------------|
B|----13-15-17----------15-13------------------------------------------|
G|-----------------------------12-----(Repeat As Much As Necessary)----|
D|--15----------------------------15-----------------------------------|
A|---------------------------------------------------------------------|
D|---------------------------------------------------------------------|


************************************

| /   slide up
| \   slide down
| h   hammer-on
| p   pull-off
| ~   vibrato
| +   harmonic
| x   Mute note
| b   Bend
| pb  Pre-bend
| br  Bend release
| pbr Pre-bend release
| brb Bend release bend

************************************
Добавлено: 08.05.2012
Другие материалы по этой песне:
  • Аккорды и текст

Страница создана 08.05.2012
http://primanota.ru/from-first-to-last/the-he-man-woman-haters-club-chords.htm
Привет, Гость.
Предлагаем пройти революционный курс по гитаре.
Подарок от PrimaNota.Ru, забирай!