PrimaNota.ru - самый крупный в мире бесплатный архив песенных текстов, аккордов, табулатур и нот


From First To Last - Regrets And Romance - текст песни, таба, видео

Регистрация Запомнить меня
Войти через:  Facebook Google Twitter Vk Yandex Mail.ru

From First To Last - Regrets And Romance - текст песни, таба, видео

Печатать
Просмотров: 159
Уроки эстрадного вокала в Санкт-Петербурге
From First To Last
Regrets and Romance
Aesthetic (EP)

.-PM
^-bend

Intro (clean) 4x
e|-------------------------------------------------------------------------------------|
b|-------------------------------------------------------------------------------------|
g|-4--4-4-4-4--4--4-4-4-4--4-4-4-4--4--4-4-4-7--7-7-7-7--7--7-7-7-7--7-7-7-7--7--7-7-7-|
d|-x--x-x-x-x--x--x-x-x-x--x-x-x-x--x--x-x-x-x--x-x-x-x--x--x-x-x-x--x-x-x-x--x--x-x-x-|
a|-2--2-2-2-2--2--2-2-2-3--3-3-3-3--3--3-3-3-5--5-5-5-5--5--5-5-5-7--7-7-7-7--7--7-7-7-|
D|-------------------------------------------------------------------------------------|

Intro (distortion) 2x
e|---------------------------------------------------|
b|---------------------------------------------------|
g|-4-4-4-4-4-4-4-4-4-4-4-4-4-7-7-7-7-7-7-7-7-7-7-7-7-|
d|-x-x-x-x-x-x-x-x-x-x-x-x-x-x-x-x-x-x-x-x-x-x-x-x-x-|
a|-2-2-2-2-2-2-2-3-3-3-3-3-3-5-5-5-5-5-5-7-7-7-7-7-7-|
D|---------------------------------------------------|

Bridge thing (clean) 4x
e|---------------|
b|---------------|
g|---------7-----|
d|-----5-------5-|
a|-7-7---7---7---|
D|---------------|

Chorus (distortion) 2x
e|----------------------------------------------------------------------------------------|
b|----------------------------------------------------------------------------------------|
g|----------------------------------------------------------------------------------------|
d|-2-2--2-2--2--2-2-2-2--2-2--2-2--2--2-2-2-2--2-2--2-2--2--2-2-2-2--2-2--2-2--2--2-2-2-2-|
a|-2-2--2-2--2--2-2-2-2--2-2--2-2--2--2-2-2-2--2-2--2-2--2--2-2-2-2--2-2--2-2--2--2-2-2-2-|
D|-2-2--2-2--2--2-2-2-2--2-2--2-2--2--2-2-2-2--2-2--2-2--2--2-2-2-2--2-2--2-2--2--2-2-2-2-|
                . . . .               . . . .               . . . .               . . . .
Chorus cont.
e|-----------------------------------------------------------------------------------------|
b|-----------------------------------------------------------------------------------------|
g|-5-5-5-5-5-5-5-5-5-5-5-5-5-5-5-5-5-5-5-5-5-5-5-5-5-5-5-5-5-5-5-5-5-5-5-5-5-5-5-5-5-5-5-5-|
d|-5-5-5-5-5-5-5-5-5-5-5-5-5-5-5-5-5-5-5-5-5-5-5-5-5-5-5-5-5-5-5-5-5-5-5-5-5-5-5-5-5-5-5-5-|
a|-3-3-3-3-3-3-3-3-3-3-3-3-3-3-3-3-3-3-3-3-3-3-3-3-3-3-3-3-3-3-3-3-3-3-3-3-3-3-3-3-3-3-3-3-|
D|-----------------------------------------------------------------------------------------|

Verse (clean) 1x
e|---------------------------------------------------------------------------------------------------------|
b|---------------------------------------------------------------------------------------------------------|
g|---------7-----------------------7----------------------4-----------------------4-----4^-4^-4--4^-4^-4^--|
d|-----5---------5-----5-------5---------5-----5------5---------5-----5-------5----------------------------|
a|-7-7---7---7-7---7-7-----7-7---7---7-7---7-7----3-3---3---3-3---3-3-----3-3---3---3-3--------------------|
D|---------------------------------------------------------------------------------------------------------|

Verse (distortion) 2x
e|--------------------------------------------------------------|
b|--------------------------------------------------------------|
g|--------------------------------5-5----5-5----5-5----5-5--5-5-|
d|-0-0----0-0----0-0----0-0--0-0--5-5----5-5----5-5----5-5--5-5-|
a|-0-0----0-0----0-0----0-0--0-0--3-3----3-3----3-3----3-3--3-3-|
D|-0-0----0-0----0-0----0-0--0-0--------------------------------|
   . .    . .    . .    . .  . .  . .    . .    . .    . .  . .

Pre chorus  (distortion) 2x
e|-------------------------------------------------|
b|-------------------------------------------------|
g|-2-2-2-2-2-2-2-2-2-2-2-2-5-5-5-5-5-5-5-5-5-5-5-5-|
d|-2-2-2-2-2-2-2-2-2-2-2-2-5-5-5-5-5-5-5-5-5-5-5-5-|
a|-0-0-0-0-0-0-0-0-0-0-0-0-3-3-3-3-3-3-3-3-3-3-3-3-|
D|-------------------------------------------------|

Another pre chorus thing (distortion) 2x
e|--------------------------------------------------------------------------------------|
b|--------------------------------------------------------------------------------------|
g|--------------------------------------------------------------------------------------|
d|-2--2-2-2-2--2-2-2--2--2-2-2-2--2--2-2-2-2--2--2-2-2-2--2-2-2--2--2-2-2-2--2--2-2-2-2-|
a|-2--2-2-2-2--2-2-2--2--2-2-2-2--2--2-2-2-2--2--2-2-2-2--2-2-2--2--2-2-2-2--2--2-2-2-2-|
D|-2--2-2-2-2--2-2-2--2--2-2-2-2--2--2-2-2-2--2--2-2-2-2--2-2-2--2--2-2-2-2--2--2-2-2-2-|
      . . . .            . . . .     . . . .     . . . .            . . . .     . . . .
Cont.
e|--------------------------------------------------------------------------------------|
b|--------------------------------------------------------------------------------------|
g|-5--5-5-5-5--5-5-5--5--5-5-5-5--5--5-5-5-5--5--5-5-5-5--5-5-5--5--5-5-5-5--5--5-5-5-5-|
d|-5--5-5-5-5--5-5-5--5--5-5-5-5--5--5-5-5-5--5--5-5-5-5--5-5-5--5--5-5-5-5--5--5-5-5-5-|
a|-3--3-3-3-3--3-3-3--3--3-3-3-3--3--3-3-3-3--3--3-3-3-3--3-3-3--3--3-3-3-3--3--3-3-3-3-|
D|--------------------------------------------------------------------------------------|
      . . . .            . . . .     . . . .     . . . .            . . . .     . . . .

Chorus (distortion) 4x
e|----------------------------------------------------------------------------------------|
b|----------------------------------------------------------------------------------------|
g|----------------------------------------------------------------------------------------|
d|-2-2--2-2--2--2-2-2-2--2-2--2-2--2--2-2-2-2--2-2--2-2--2--2-2-2-2--2-2--2-2--2--2-2-2-2-|
a|-2-2--2-2--2--2-2-2-2--2-2--2-2--2--2-2-2-2--2-2--2-2--2--2-2-2-2--2-2--2-2--2--2-2-2-2-|
D|-2-2--2-2--2--2-2-2-2--2-2--2-2--2--2-2-2-2--2-2--2-2--2--2-2-2-2--2-2--2-2--2--2-2-2-2-|

Chorus cont.
e|-----------------------------------------------------------------------------------------|
b|-----------------------------------------------------------------------------------------|
g|-5-5-5-5-5-5-5-5-5-5-5-5-5-5-5-5-5-5-5-5-5-5-5-5-5-5-5-5-5-5-5-5-5-5-5-5-5-5-5-5-5-5-5-5-|
d|-5-5-5-5-5-5-5-5-5-5-5-5-5-5-5-5-5-5-5-5-5-5-5-5-5-5-5-5-5-5-5-5-5-5-5-5-5-5-5-5-5-5-5-5-|
a|-3-3-3-3-3-3-3-3-3-3-3-3-3-3-3-3-3-3-3-3-3-3-3-3-3-3-3-3-3-3-3-3-3-3-3-3-3-3-3-3-3-3-3-3-|
D|-----------------------------------------------------------------------------------------|


Bridge (distortion)
e|----------------------------------------------------------------------------------------------------------|
b|----------------------------------------------------------------------------------------------------------|
g|-11-1111111--11-11111112--12-12-12-12--12--12-12-12-14--14-14-14-14--14--14-14-14-14--14--14-14-14-14--14-|
d|-x--x-x-x-x--x--x-x-x-x---x--x--x--x---x---x--x--x--x---x--x--x--x---x---x--x--x--x---x---x--x--x--x---x--|
a|-9--9-9-9-9--9--9-9-9-10--10-10-10-10--10--10-10-10-12--12-12-12-12--12--12-12-12-12--12--12-12-12-12--12-|
D|----------------------------------------------------------------------------------------------------------|

Part A
e|--------17-15----|
b|--------------15-|
g|-5-5--5----------| 4x
d|-5-5--5----------|
a|-3-3--3----------|
D|-----------------|

Part B 1x
e|-------------------------------------------------------------------------------------------------------------|
b|-------------------------------------------------------------------------------------------------------------|
g|-12-12-12-12-12-12-12-12-12-12-12-12-12-14-14-14-14-14-14-14-14-14-14-14-16-16-16-16-16-16-16-16-16-16-16-16-|
d|-x--x--x--x--x--x--x--x--x--x--x--x--x--x--x--x--x--x--x--x--x--x--x--x--x--x--x--x--x--x--x--x--x--x--x--x--|
a|-10-10-10-10-10-10-10-10-10-10-10-10-10-12-12-12-12-12-12-12-12-12-12-12-14-14-14-14-14-14-14-14-14-14-14-14-|
D|-------------------------------------------------------------------------------------------------------------|

Part B cont.
e|-------------------------------------|
b|-------------------------------------|
g|-17-17-17-17-17-17-17-17-17-17-17-17-|
d|-x--x--x--x--x--x--x--x--x--x--x--x--|
a|-15-15-15-15-15-15-15-15-15-15-15-15-|
D|-------------------------------------|

Repeat part A 4x
Repeat part B 1x
Repeat part A 4x

Outro (disortion) 7x
e|----------------|
b|----------------|
g|-5-5--5---------|
d|-5-5--5-2-2-2-2-|
a|-3-3--3-2-2-2-2-|
D|--------2-2-2-2-|
          . . . .
End with
e|---|
b|---|
g|-5-|
d|-5-|
a|-3-|
D|---|
Добавлено: 01.05.2012
Другие материалы по этой песне:
  • Аккорды и текст

Страница создана 01.05.2012
http://primanota.ru/from-first-to-last/regrets-and-romance-chords.htm
Привет, Гость.
Предлагаем пройти революционный курс по гитаре.
Подарок от PrimaNota.Ru, забирай!