PrimaNota.ru - самый крупный в мире бесплатный архив песенных текстов, аккордов, табулатур и нот


From First To Last - Medicinal Reality - текст песни, таба, видео

Регистрация Запомнить меня
Войти через:  Facebook Google Twitter Vk Yandex Mail.ru

From First To Last - Medicinal Reality - текст песни, таба, видео

Печатать
Просмотров: 127
From First To Last
Medicinal Reality
From First To Last

Tuning: C#G#C#F#A#D#
 a.k.a. DbAbDbGbBbEb

Guitar parts: GTR I
              GTR II
GTRI
     Intro 0:00 - 0:10
C#|------------------------------------------------------------------|
G#|-----------6------------------------------------------------------|
C#|-------7-----7--------2-0h2---2\------------------------2---2b2~--|
F#|---------0-----0/-3-3--3----3-------------7--------3--3---3-------|
A#|--------------------------------------5-----5---------------------|
C#|--0------------------------------5--5---5-----5-------------------|

GTR I&II
 0:11- 0:15        2x                 2x
C#|---------------------------|-----------------------|
G#|--------------------------o|----------------------o|
C#|--------10--9---7----------|-----7--9--6-----------|
F#|---0----x---x---x----------|--0--x--x--x-----------|
A#|---0----8---7---5---------o|--0--5--7--4----------o|
C#|---0-----------------------|--0--------------------|

GTRI&II
   0:15- 0:18
C#|--------------------------------|
G#|--------------------------------|
C#|--------------------------------|
F#|--------------------------------|
A#|--------------------------------|
C#|--8-8-8\-3-3-7\-1-1-1-1-5-5-5---|

GTRI& II
   0:18- 0:23        2x                 2x
C#|---------------------------|-----------------------|
G#|--------------------------o|----------------------o|
C#|--------10--9---7----------|-----7--9--6-----------|
F#|---0----x---x---x----------|--0--x--x--x-----------|
A#|---0----8---7---5---------o|--0--5--7--4----------o|
C#|---0-----------------------|--0--------------------|

GTRI& II
   0:23- 0:25
C#|--------------------------------|
G#|--------------------------------|
C#|--------------------------------|
F#|--------------------------------|
A#|--------------------------------|
C#|--8-8-8\-3-3-7\-1-1-1-1-5-5-5-0-|

GTR I  0:25-0:44
C#|----------------13--------|
G#|-------------15----15----o|
C#|----------14---------13---| 16x
F#|----0pm-------------------|
A#|----0pm------------------o|
C#|----0pm-------------------|


GTRII 0:25-0:44
C#|---------------------------------------------------------------------|
G#|---------------------------------------------------------------------|
C#|---------------------------------------------------------------------|
F#|----0pm------0pm-------0pm--------0pm-0pm-0pm-0pm-0pm-0pm-0pm--------|
A#|----0pm------0pm-------0pm--------0pm-0pm-0pm-0pm-0pm-0pm-0pm--------|
C#|----0pm------0pm-------0pm--------0pm-0pm-0pm-0pm-0pm-0pm-0pm--------|


GTR I&II 0:45-0:59
C#|--------------------------|-------------------------------------|
G#|-------------------------o|-------------------------------------|
C#|--------------------------|--------------7--7--7----------------|
F#|--5pm-5pm-5pm----7--7--7--|---8--8--8----7--7--7---3-3-3-3-3-3--|  3x
A#|--5pm-5pm-5pm----0--0--0-o|---8--8--8----5--5--5---3-3-3-3-3-3--|
C#|--5pm-5pm-5pm----7--7--7--|---8--8--8--------------3-3-3-3-3-3--|



GTRI   0:47-0:59
C#|---------------------------------|
G#|---------------------------------|
C#|--------7h10p7-------------------|
F#|---8h10-------10-8h9b-9b-9b-9b---|
A#|---------------------------------|
C#|---------------------------------|


GTRII  0:47-0:59             3x       0:50- 1:04  2x           2x
C#|-----------------------------------|---------------|--------------------|
G#|-----------------------------------|---------------|--------------------|
C#|------------7--7--7----------------|---------------|--------------------|
F#|--8--8--8---7--7--7--3-3-3-3-3-3---|--1-1-1-1-1-1--|-13-13-13-13-13-13--|
A#|--8--8--8---5--5--5--3-3-3-3-3-3---|--1-1-1-1-1-1--|-13-13-13-13-13-13--|
C#|--8--8--8------------3-3-3-3-3-3---|--1-1-1-1-1-1--|-13-13-13-13-13-13--|


GTR I  1:05-1:24
C#|----------------13--------|
G#|-------------15----15----o|
C#|----------14---------13---| 16x
F#|----0pm-------------------|
A#|----0pm------------------o|
C#|----0pm-------------------|


GTRII 1:05-1:24
C#|---------------------------------------------------------------------|
G#|---------------------------------------------------------------------|
C#|---------------------------------------------------------------------|
F#|----0pm------0pm-------0pm--------0pm-0pm-0pm-0pm-0pm-0pm-0pm--------|
A#|----0pm------0pm-------0pm--------0pm-0pm-0pm-0pm-0pm-0pm-0pm--------|
C#|----0pm------0pm-------0pm--------0pm-0pm-0pm-0pm-0pm-0pm-0pm--------|


GTR I&II 1:25-1:39
C#|--------------------------|-------------------------------------|
G#|-------------------------o|-------------------------------------|
C#|--------------------------|--------------7--7--7----------------|
F#|--5pm-5pm-5pm----7--7--7--|---8--8--8----7--7--7---3-3-3-3-3-3--|  3x
A#|--5pm-5pm-5pm----0--0--0-o|---8--8--8----5--5--5---3-3-3-3-3-3--|
C#|--5pm-5pm-5pm----7--7--7--|---8--8--8--------------3-3-3-3-3-3--|



GTRI   1:25-1:39
C#|---------------------------------|
G#|---------------------------------|
C#|--------7h10p7-------------------|
F#|---8h10-------10-8h9b-9b-9b-9b---|
A#|---------------------------------|
C#|---------------------------------|


GTRII  1:25-1:39             3x       1:39- 1:44  2x           2x
C#|-----------------------------------|---------------|--------------------|
G#|-----------------------------------|---------------|--------------------|
C#|------------7--7--7----------------|---------------|--------------------|
F#|--8--8--8---7--7--7--3-3-3-3-3-3---|--1-1-1-1-1-1--|-13-13-13-13-13-13--|
A#|--8--8--8---5--5--5--3-3-3-3-3-3---|--1-1-1-1-1-1--|-13-13-13-13-13-13--|
C#|--8--8--8------------3-3-3-3-3-3---|--1-1-1-1-1-1--|-13-13-13-13-13-13--|



GTRI
      1:45 - 2:04
C#|------------------------------------------------------------------|
G#|-----------6------------------------------------------------------|
C#|-------7-----7--------2-0h2---2\------------------------2---0h2p0-|
F#|---------0-----0/-3-3--3----3-------------7--------3--3---3-------|
A#|--------------------------------------5-----5---------------------|
C#|--0------------------------------5--5---5-----5-------------------|

C#|-------------------------------------------------------------------|
G#|-------------------------------------------------------------------|
C#|--------------------------3-------------2---0h2----------------2b2-|
F#|----------8-------------------------------3------------------------|
A#|-----8----------------5-----5-----------------------------1--------|
C#|-8-8---8----8--7--5-5---5-----5-----3-3--------3\----1--1---1------|



GTR II
        1:45-2:04
C#|-------------------------------------------------------------------|
G#|-------------------------------------------------------------------|
C#|-------------------------------------------------------------------|
F#|--0------3------5------3-------8------5------3------1--------------|
A#|--0------3------5------3-------8------5------3------1--------------|
C#|--0------3------5------3-------8------5------3------1--------------|


GTR I  2:04-2:14
C#|----------------13--------|
G#|-------------15----15----o|
C#|----------14---------13---| 8x
F#|--------0-----------------|
A#|-------------------------o|
C#|--------------------------|

GTR II  2:09
C#|--------------------------|
G#|--------------------------|
C#|--------------------------| 
F#|---------0----------------|
A#|---------0----------------|
C#|---------0----------------|




GTR I&II 2:14-2:30
C#|--------------------------|-------------------------------------|
G#|-------------------------o|-------------------------------------|
C#|--------------------------|--------------7--7--7----------------|
F#|--5pm-5pm-5pm----7--7--7--|---8--8--8----7--7--7---3-3-3-3-3-3--|  3x
A#|--5pm-5pm-5pm----0--0--0-o|---8--8--8----5--5--5---3-3-3-3-3-3--|
C#|--5pm-5pm-5pm----7--7--7--|---8--8--8--------------3-3-3-3-3-3--|



GTRI   2:14-2:30
C#|---------------------------------|
G#|---------------------------------|
C#|--------7h10p7-------------------|
F#|---8h10-------10-8h9b-9b-9b-9b---|
A#|---------------------------------|
C#|---------------------------------|


GTRII  2:28-2:30                        2:30- 2:36  2x           2x
C#|-----------------------------------|---------------|--------------------|
G#|-----------------------------------|---------------|--------------------|
C#|------------7--7--7----------------|---------------|--------------------|
F#|--8--8--8---7--7--7--3-3-3-3-3-3---|--1-1-1-1-1-1--|-13-13-13-13-13-13--|
A#|--8--8--8---5--5--5--3-3-3-3-3-3---|--1-1-1-1-1-1--|-13-13-13-13-13-13--|
C#|--8--8--8------------3-3-3-3-3-3---|--1-1-1-1-1-1--|-13-13-13-13-13-13--|


GTR I&II 2:35-2:50
C#|--------------------------|-------------------------------------|
G#|-------------------------o|-------------------------------------|
C#|--------------------------|--------------7--7--7----------------|
F#|--5pm-5pm-5pm----7--7--7--|---8--8--8----7--7--7---3-3-3-3-3-3--|  3x
A#|--5pm-5pm-5pm----0--0--0-o|---8--8--8----5--5--5---3-3-3-3-3-3--|
C#|--5pm-5pm-5pm----7--7--7--|---8--8--8--------------3-3-3-3-3-3--|



GTRI   2:35-2:50
C#|---------------------------------|
G#|---------------------------------|
C#|--------7h10p7-------------------|
F#|---8h10-------10-8h9b-9b-9b-9b---|
A#|---------------------------------|
C#|---------------------------------|


GTRII  2:35-2:50                    2:51- 2:55  2x           2x
C#|-----------------------------------|---------------|--------------------|
G#|-----------------------------------|---------------|--------------------|
C#|------------7--7--7----------------|---------------|--------------------|
F#|--8--8--8---7--7--7--3-3-3-3-3-3---|--1-1-1-1-1-1--|-13-13-13-13-13-13--|
A#|--8--8--8---5--5--5--3-3-3-3-3-3---|--1-1-1-1-1-1--|-13-13-13-13-13-13--|
C#|--8--8--8------------3-3-3-3-3-3---|--1-1-1-1-1-1--|-13-13-13-13-13-13--|




GTRI   2:57-3:10
C#|---------------------------------|
G#|---------------------------------|
C#|--------7h10p7-------------------|x2
F#|---8h10-------10-8h9b-9b-9b-9b---|
A#|---------------------------------|
C#|---------------------------------|

GTRII   2:55-2:50
C#|---------------------------------------|
G#|--------------------------------------o|
C#|---------------------------------------|
F#|---------------------------------------|x2
A#|-----5-----7-----5----5----7---5------o|
C#|---5---5------5-----5---5----5---------|




Добавлено: 02.03.2012
Другие материалы по этой песне:

Страница создана 02.03.2012
http://primanota.ru/from-first-to-last/medicinal-reality-chords.htm
Привет, Гость.
Предлагаем пройти революционный курс по гитаре.
Подарок от PrimaNota.Ru, забирай!