PrimaNota.ru - самый крупный в мире бесплатный архив песенных текстов, аккордов, табулатур и нот


From First To Last - Cashing Out - таба, видео

Регистрация Запомнить меня
Войти через:  Facebook Google Twitter Vk Yandex Mail.ru

From First To Last - Cashing Out - таба, видео

Печатать
Просмотров: 115
Artist: From First To Last
Song: Cashing Out
Album: Throne To The Wolves (2010)
Tuning: Drop D

Intro Pt. I:

Lead Guitar-
e|-------------------------------------------------------------------|
b|-------------------------------------------------------------------|
G|--7-----------------------------------------------------5---5-7-8--|
D|----------5-------7-8-7---5-------5---5-7-5-------8-7-8---8--------|
A|----5-7-8---8-7-8-------8---8-7-8---8-------8-7-8------------------|
D|-------------------------------------------------------------------| x2
PM  . . . . . . . . . . . . . . . . . . . . . . . . . . . . . . . .


Intro Pt. II:

Lead Guitar-
e|--10---------------------------------------------------------------------8----8-10-11--|
b|------------8---------10-11-10----8---------8----8-10-8---------11-10-11---11----------|
G|-----7-9-10---10-9-10----------10---10-9-10---10--------10-9-10------------------------|
D|---------------------------------------------------------------------------------------|
A|---------------------------------------------------------------------------------------|
D|---------------------------------------------------------------------------------------| x4

Rhythm Guitar-
e|-------------------------------------------------------------------|
b|-------------------------------------------------------------------|
G|--7-7-7-7-7-7-7-7---------------------------------3-3-3-3-3-3-3-3--|
D|--7-7-7-7-7-7-7-7-2-2-2-2-2-2-2-2-3-3-3-3-3-3-3-3-3-3-3-3-3-3-3-3--|
A|--5-5-5-5-5-5-5-5-2-2-2-2-2-2-2-2-3-3-3-3-3-3-3-3-1-1-1-1-1-1-1-1--|
D|------------------2-2-2-2-2-2-2-2-3-3-3-3-3-3-3-3------------------| x4



Verse:

Lead Guitar-
e|-----------------------------------------------------------|
b|-----------------------------------------------------------|
G|-----------------------------------------------------------|
D|--0-0----------------0-0-0--0-0-0----------------0-0-0--0--|
A|--0-0----------------0-0-0--0-0-0----------------0-0-0--0--|
D|--0-0--0-0-0--0-0-0--0-0-0--0-0-0--0-0-0--0-0-0--0-0-0--0--| x4

Rhythm Guitar-
e|-----------------------------------------------------------|
b|-----------------------------------------------------------|
G|-----------------------------------------------------------|
D|--0-0----------------0-0-0--0-0-0----------------0-0-0--0--|
A|--0-0----------------0-0-0--0-0-0----------------0-0-0--0--|
D|--0-0----------------0-0-0--0-0-0----------------0-0-0--0--| x4

Both guitars lead into Chorus with pick slides up the neck.



Chorus Pt. I:

Lead Guitar (slightly ambient)-
e|--10---------------------------------------------------------------------8----8-10-11--|
b|------------8---------10-11-10----8---------8----8-10-8---------11-10-11---11----------|
G|-----7-9-10---10-9-10----------10---10-9-10---10--------10-9-10------------------------|
D|---------------------------------------------------------------------------------------|
A|---------------------------------------------------------------------------------------|
D|---------------------------------------------------------------------------------------| x3

Rhythm Guitar-
e|-------------------------------------------------------------------|
b|-------------------------------------------------------------------|
G|--3-3-3-3-3-3-3-3-3-3-3-3-3-3-3-3----------------------------------|
D|--3-3-3-3-3-3-3-3-3-3-3-3-3-3-3-3-5-5-5-5-5-5-5-5-5-5-5-5-5-5-5-5--|
A|--1-1-1-1-1-1-1-1-1-1-1-1-1-1-1-1-5-5-5-5-5-5-5-5-5-5-5-5-5-5-5-5--|
D|----------------------------------5-5-5-5-5-5-5-5-5-5-5-5-5-5-5-5--|

e|-------------------------------------------------------------------|
b|-------------------------------------------------------------------|
G|-------------------------------------------------------------------|
D|--0-0-0-0-0-0-0-0-0-0-0-0-0-0-0-0-3-3-3-3-3-3-3-3-3-3-3-3-3-3-3-3--|
A|--0-0-0-0-0-0-0-0-0-0-0-0-0-0-0-0-3-3-3-3-3-3-3-3-3-3-3-3-3-3-3-3--|
D|--0-0-0-0-0-0-0-0-0-0-0-0-0-0-0-0-3-3-3-3-3-3-3-3-3-3-3-3-3-3-3-3--| 

e|-------------------------------------------------------------------|
b|-------------------------------------------------------------------|
G|--3-3-3-3-3-3-3-3-3-3-3-3-3-3-3-3----------------------------------|
D|--3-3-3-3-3-3-3-3-3-3-3-3-3-3-3-3-5-5-5-5-5-5-5-5-5-5-5-5-5-5-5-5--|
A|--1-1-1-1-1-1-1-1-1-1-1-1-1-1-1-1-5-5-5-5-5-5-5-5-5-5-5-5-5-5-5-5--|
D|----------------------------------5-5-5-5-5-5-5-5-5-5-5-5-5-5-5-5--|


Chorus Pt. II:

Lead Guitar-
e|-------------------------------------------------------------------|
b|--------------10-8-10--10-8-10--------------10-8-10--10/11-10------|
G|-------------------------------------------------------------------|
D|----0----0------------------------0----0---------------------------|
A|--0-0--0-0----------------------0-0--0-0---------------------------|
D|--0-0--0-0----------------------0-0--0-0---------------------------|
PM  .    .                        .    .

Rhythm Guitar-
e|-------------------------------------------------------------------|
b|-------------------------------------------------------------------|
G|--------------10-9-10--10-9-10--------------10-9-10--10/12-10------|
D|----0----0------------------------0----0---------------------------|
A|--0-0--0-0----------------------0-0--0-0---------------------------|
D|--0-0--0-0----------------------0-0--0-0---------------------------|
PM  .    .                        .    .



Verse 2 Pt. I:

Both Guitars-
e|-------------------------------------------------------------------|
b|----------------------------------2-2-2-2-2-2-2-2-5-5-5-5-5-5-5-5--|
G|----------------------------------3-3-3-3-3-3-3-3-6-6-6-6-6-6-6-6--|
D|--0-0-0-0-0-0-0-0-0-0-0-0-0-0-0-0-x-x-x-x-x-x-x-x-x-x-x-x-x-x-x-x--|
A|--0-0-0-0-0-0-0-0-0-0-0-0-0-0-0-0-1-1-1-1-1-1-1-1-4-4-4-4-4-4-4-4--|
D|--0-0-0-0-0-0-0-0-0-0-0-0-0-0-0-0----------------------------------| x2


Verse 2 Pt. II:

Lead Guitar-
e|--------------------------------------------------------|
b|--------------------------------------------------------|
G|--------------------------------------------------------|
D|--0-0----------------0-0-0--0-0-0----------------0-0-0--|
A|--0-0----------------0-0-0--0-0-0----------------0-0-0--|
D|--0-0------0--0-0-0--0-0-0--0-0-0------0--0-0-0--0-0-0--| x2

Rhythm Guitar-
e|--------------------------------------------------------|
b|--------------------------------------------------------|
G|--------------------------------------------------------|
D|--0-0----------------0-0-0--0-0-0----------------0-0-0--|
A|--0-0----------------0-0-0--0-0-0----------------0-0-0--|
D|--0-0----------------0-0-0--0-0-0----------------0-0-0--| x2


Lead Guitar-
e|-----------------------------------------------------------|
b|-----------------------------------------------------------|
G|-----------------------------------------------------------|
D|--0-0----------------0-0-0--0-0-0----------------0-0-0--0--|
A|--0-0----------------0-0-0--0-0-0----------------0-0-0--0--|
D|--0-0--0-0-0--0-0-0--0-0-0--0-0-0--0-0-0--0-0-0--0-0-0--0--| x4

Rhythm Guitar-
e|-----------------------------------------------------------|
b|-----------------------------------------------------------|
G|-----------------------------------------------------------|
D|--0-0----------------0-0-0--0-0-0----------------0-0-0--0--|
A|--0-0----------------0-0-0--0-0-0----------------0-0-0--0--|
D|--0-0----------------0-0-0--0-0-0----------------0-0-0--0--| x4

Once again, both guitars lead into Chorus with pick slides up the neck.



Chorus Pt. I:

Lead Guitar (slightly ambient)-
e|--10---------------------------------------------------------------------8----8-10-11--|
b|------------8---------10-11-10----8---------8----8-10-8---------11-10-11---11----------|
G|-----7-9-10---10-9-10----------10---10-9-10---10--------10-9-10------------------------|
D|---------------------------------------------------------------------------------------|
A|---------------------------------------------------------------------------------------|
D|---------------------------------------------------------------------------------------| x3

Rhythm Guitar-
e|-------------------------------------------------------------------|
b|-------------------------------------------------------------------|
G|--3-3-3-3-3-3-3-3-3-3-3-3-3-3-3-3----------------------------------|
D|--3-3-3-3-3-3-3-3-3-3-3-3-3-3-3-3-5-5-5-5-5-5-5-5-5-5-5-5-5-5-5-5--|
A|--1-1-1-1-1-1-1-1-1-1-1-1-1-1-1-1-5-5-5-5-5-5-5-5-5-5-5-5-5-5-5-5--|
D|----------------------------------5-5-5-5-5-5-5-5-5-5-5-5-5-5-5-5--|

e|-------------------------------------------------------------------|
b|-------------------------------------------------------------------|
G|-------------------------------------------------------------------|
D|--0-0-0-0-0-0-0-0-0-0-0-0-0-0-0-0-3-3-3-3-3-3-3-3-3-3-3-3-3-3-3-3--|
A|--0-0-0-0-0-0-0-0-0-0-0-0-0-0-0-0-3-3-3-3-3-3-3-3-3-3-3-3-3-3-3-3--|
D|--0-0-0-0-0-0-0-0-0-0-0-0-0-0-0-0-3-3-3-3-3-3-3-3-3-3-3-3-3-3-3-3--|

e|-------------------------------------------------------------------|
b|-------------------------------------------------------------------|
G|--3-3-3-3-3-3-3-3-3-3-3-3-3-3-3-3----------------------------------|
D|--3-3-3-3-3-3-3-3-3-3-3-3-3-3-3-3-5-5-5-5-5-5-5-5-5-5-5-5-5-5-5-5--|
A|--1-1-1-1-1-1-1-1-1-1-1-1-1-1-1-1-5-5-5-5-5-5-5-5-5-5-5-5-5-5-5-5--|
D|----------------------------------5-5-5-5-5-5-5-5-5-5-5-5-5-5-5-5--|


Chorus Pt. II:

Lead Guitar-
e|-------------------------------------------------------------------|
b|--------------10-8-10--10-8-10--------------10-8-10--10/11-10------|
G|-------------------------------------------------------------------|
D|----0----0------------------------0----0---------------------------|
A|--0-0--0-0----------------------0-0--0-0---------------------------|
D|--0-0--0-0----------------------0-0--0-0---------------------------|
PM  .    .                        .    .

Rhythm Guitar-
e|-------------------------------------------------------------------|
b|-------------------------------------------------------------------|
G|--------------10-9-10--10-9-10--------------10-9-10--10/12-10------|
D|----0----0------------------------0----0---------------------------|
A|--0-0--0-0----------------------0-0--0-0---------------------------|
D|--0-0--0-0----------------------0-0--0-0---------------------------|
PM  .    .                        .    .


REPEAT CHORUS PT. I & II



Bridge:

Rhythm Guitar-
e|-------------------------------------------------------------------|
b|-------------------------------------------------------------------|
G|--7-----------------------------------------------------5---5-7-8--|
D|----------5-------7-8-7---5-------5---5-7-5-------8-7-8---8--------|
A|----5-7-8---8-7-8-------8---8-7-8---8-------8-7-8------------------|
D|-------------------------------------------------------------------| x3
PM  . . . . . . . . . . . . . . . . . . . . . . . . . . . . . . . .

e|--10---------------------------------------------------------------------8----8-10-11--|
b|------------8---------10-11-10----8---------8----8-10-8---------11-10-11---11----------|
G|-----7-9-10---10-9-10----------10---10-9-10---10--------10-9-10------------------------|
D|---------------------------------------------------------------------------------------|
A|---------------------------------------------------------------------------------------|
D|---------------------------------------------------------------------------------------|
 
Lead Guitar (rests for 3 bars, then joins in with this harmony [not 100% sure about this])-
e|13-------------------------------------------------------------------------------11----11-13-14|
b|------------11----------13-14-13----11----------11----11-13-11----------14-13-14----14---------|
G|---10-12-13----13-12-13----------13----13-12-13----13----------13-12-13------------------------|
D|-----------------------------------------------------------------------------------------------|
A|-----------------------------------------------------------------------------------------------|
D|-----------------------------------------------------------------------------------------------|


Outro:

Lead Guitar-
e|-----------------------------------------------------------|
b|-----------------------------------------------------------|
G|-----------------------------------------------------------|
D|--0-0----------------0-0-0--0-0-0----------------0-0-0--0--|
A|--0-0----------------0-0-0--0-0-0----------------0-0-0--0--|
D|--0-0--0-0-0--0-0-0--0-0-0--0-0-0--0-0-0--0-0-0--0-0-0--0--| x2

Rhythm Guitar-
e|-----------------------------------------------------------|
b|-----------------------------------------------------------|
G|-----------------------------------------------------------|
D|--0-0----------------0-0-0--0-0-0----------------0-0-0--0--|
A|--0-0----------------0-0-0--0-0-0----------------0-0-0--0--|
D|--0-0----------------0-0-0--0-0-0----------------0-0-0--0--| x2


That's about it... enjoy



Добавлено: 04.06.2012
Другие материалы по этой песне:

Страница создана 04.06.2012
http://primanota.ru/from-first-to-last/cashing-out-chords.htm
Привет, Гость.
Предлагаем пройти революционный курс по гитаре.
Подарок от PrimaNota.Ru, забирай!