PrimaNota.ru - самый крупный в мире бесплатный архив песенных текстов, аккордов, табулатур и нот


From First To Last - And We All Have A Hell - текст песни, таба, видео

Регистрация Запомнить меня
Войти через:  Facebook Google Twitter Vk Yandex Mail.ru

From First To Last - And We All Have A Hell - текст песни, таба, видео

Печатать
Просмотров: 96
From First To Last
...And We All Have A Hell

intro
(guitar 1)
d|----------------------------------------------------------|
a|----------------------------------------------------------|
f|----------------------------------------------------------|
c|----------------------------------------------------------|
g|----------------------------------------------------------|
c|-7-3-0-(x4)-8-3-0-(x4)-7-3-0-(x4)-8-8-8-8-8-8-7-7-7-7-7-7-|x2

(guitar 2)
d|----------------------------------------------------------|
a|-10-10-10-10-10-10-11-11-11-11-11-11-10-10-10-10-10-10----|
f|----------------------------------------------------------|
c|----------------------------------------------------------|
g|----------------------------------------------------------|
c|----------------------------------------------------------|

d|----------------------------------------------------------|
a|-6-6-6-6-6-6-5-5-5-5-5-5----------------------------------|
f|----------------------------------------------------------|
c|----------------------------------------------------------|
g|----------------------------------------------------------|
c|----------------------------------------------------------|x2

verse
(guitar 1)
d|--------------------|----------|--------------------------|
a|--------------------|----------|--------------------------|
f|--------------------|----------|--------------------------|
c|-0-0-------0-0------|-00000000-|-0-0-//0-0--0-0--00000000-|
g|-0-0-------0-0------|-00000000-|-0-0-//0-0--0-0--00000000-|
c|-0-0-0/3-0-0-0-(x2)-|-00000000-|-0-0-//0-0--0-0--00000000-|

(guitar 2)
d|----------------------------------------------------------|
a|-10---------9--------10--------11---------9---------------|
f|---7-(x8)----6-(x8)----7-(x4)----7-(x4)----6-(x8)---------|
c|----------------------------------------------------------|
g|----------------------------------------------------------|
c|----------------------------------------------------------|x2

pre-chorus
(both guitars)
d|----------------------------------------------------------|
a|----------------------------------------------------------|
f|----------------------------------------------------------|
c|----------------------------------------------------------|
g|----------------8--7--4--7--5-----------------------------|
c|-0--2--3--8--7--------------------------------------------|

chorus
(guitar 1)
d|----------------------------------------------------------|
a|----------------------------------------------------------|
f|----------------------------------------------------------|
c|--------------------------------8-8-8-8-8-8--7-7-7--3-3-3-|
g|--------------------------------8-8-8-8-8-8--7-7-7--3-3-3-|
c|-7-3-0-8-3-0-(x3)---------------8-8-8-8-8-8--7-7-7--3-3-3-|


d|----------------------------------------------------------|
a|----------------------------------------------------------|
f|------10-10-10---------7-10-6------10-10-10---------------|
c|-000---x--x--x---000---x--x-x-------x--x--x--7-7-7--3-3-3-|
g|-000---6--6--6---000---5--8-4-------6--6--6--7-7-7--3-3-3-|
c|-000-------------000-------------------------7-7-7--3-3-3-|

post-chorus
(both guitars)
d|----------------------------------------------------------|
a|----------------------------------------------------------|
f|----------------------------------------------------------|
c|----------------------------------------------------------|
g|----------------------------------------------------------|
c|-7-3-0--7-3-0---------------------------------------------|

(play verse)
(play pre-chorus)
(play chorus)

2nd post-chorus
(both guitars)
d|----------------------------------------------------------|
a|----------------------------------------------------------|
f|----------------------------------------------------------|
c|----------------------------------------------------------|
g|----------------------------------------------------------|
c|-7~--3~--7~--3~-------------------------------------------|

solo-type-thing
(guitar 1)
d|----------------------------------------------------------|
a|----------------------------------------------------------|
f|----------------------------------------------------------|
c|----------------------------------------------------------|
g|----------------------------------------------------------|
c|-7~--3~--7~--3~--7~--3~--0~--0~---------------------------|x2

(guitar 2) 
d|----------------------------------------------------------|
a|-10^^------10^^------10^^--12^^--13^^^--------------------|
f|------10^^------10^^--------------------------------------|
c|------------------------(very very slight bends)----------|
g|----------------------------------------------------------|
c|----------------------------------------------------------|x2

...I blend with the walls...
(guitar 1)
d|----------------------------------------------------------|
a|----------------------------------------------------------|
f|----------------------------------------------------------|
c|----------------------------------------------------------|
g|----------------------------------------------------------|
c|-7~--3~--7~--3~--7~--3~--0~--0----------------------------|x2

(guitar 2)
d|----------------------------------------------------------|
a|----------------------------------------------------------|
f|-10-9--10-9--10-9-(repeat this alot)----------------------|
c|----------------------------------------------------------|
g|----------------------------------------------------------|
c|----------------------------------------------------------|

(guitar 1)
d|----------------------------------------------------------|
a|----------------------------------------------------------|
f|----------------------------------------------------------|
c|----------------------------------------------------------|
g|--------------1~-----0~-----------------------------------|
c|-3~----2~-------------------------------------------------|

(guitar 2)
d|----------------------------------------------------------|
a|--------------11~----10~----------------------------------|
f|-10~---9~-------------------------------------------------|
c|----------------------------------------------------------|
g|----------------------------------------------------------|
c|----------------------------------------------------------|

(play chorus)

outro
(both guitars)
d|----------------------------------------------------------|
a|----------------------------------------------------------|
f|----------------------------------------------------------|
c|----------------------------------------------------------|
g|----------------------------------------------------------|
c|-7--3--0----7--3--0----7--3--0----7--3--0-----------------|x8

d|---------|
a|---------|
f|---------|
c|----0----|
g|----0----|
c|----0----|
Добавлено: 26.03.2012
Другие материалы по этой песне:

Страница создана 26.03.2012
http://primanota.ru/from-first-to-last/and-we-all-have-a-hell-chords.htm
Привет, Гость.
Предлагаем пройти революционный курс по гитаре.
Подарок от PrimaNota.Ru, забирай!