PrimaNota.ru - самый крупный в мире бесплатный архив песенных текстов, аккордов, табулатур и нот


From Autumn To Ashes - Placentapead - таба

Регистрация Запомнить меня
Войти через:  Facebook Google Twitter Vk Yandex Mail.ru

From Autumn To Ashes - Placentapead - таба

Печатать
Просмотров: 70
----------------------------------------------------------------------------
                             Placentapead - From Autumn to Ashes
----------------------------------------------------------------------------
Tabbed by:Dehbeans
Email:
This is a very kick ass song by a kick ass band. I couldnt find any tabs anywhere so
i did it myself. this is my first tabs so i hope its good enough. Enjoy 

Tuning:EADGBe

| /  slide up
| \  slide down
| h  hammer-on
| p  pull-off
| ~  vibrato
| +  harmonic
| x  Mute note


intro
e|-------------------------------------------------------------------------|
B|-------------------------------------------------------------------------|
G|-------------------5--7(7)--------------------------14p12p11-(x3)--------|
D|-------------------5--7(7)-----------------------------------------------|
A|---10p0----7--9----3--5(5)-----10p0------7--9----------------------------|
E|-0------0------------------0--------0-----------0------------------------|
                                                  x
                                               1 2 3 go....
e|-------------------------------------------------------------------------|
B|-------------------------------------------------------------------------|
G|-------------------5--7(7)---444444444444--------------------------------|
D|-------------------5--7(7)---444444444444--------------------------------|
A|---10p0----7--9----3--5(5)---222222222222--------------------------------|
E|-0------0----------------------------------------------------------------|
                               xxxxxxx                   


verse.
(play this 4 times)

  Its not a far commute....            to access
e|-------------------------------------------------------------------------|
B|-------------------------------------------------------------------------|
G|-------------------5--7(7)--------------------------14p12p11-(x3)--------|
D|-------------------5--7(7)-----------------------------------------------|
A|---10p0----7--9----3--5(5)-----10p0------7--9----------------------------|
E|-0------0------------------0--------0-----------0------------------------|
                                                  x
   the company of brighter pigments                
e|-------------------------------------------------------------------------|
B|-------------------------------------------------------------------------|
G|-------------------5--7(7)------444444444--------------------------------|
D|-------------------5--7(7)------444444444--------------------------------|
A|---10p0----7--9----3--5(5)------222222222--------------------------------|
E|-0------0----------------------------------------------------------------|


pre chorus (play this part on the last time of the verse,its kinda ify, but 
i just play this it sound pretty good)

          henry...
e|-------------------------------------------------------------------------|
B|-------------------------------------------------------------------------|
G|------4x5-----------77--------then this----555555555--77777777-----------|
D|------4x5---5---5-5-77--(4x)---------------555555555--77777777-----------|
A|------2x3-3---3--3--55---------------------333333333--55555555-----------|
E|-------------------------------------------------------------------------|
            x x x x x                        xxxxxxxxx  xxxxxxxx

chorus
(listen to the song for stumming pattern)

e|-------------------------------------------------------------------------|
B|-------------------------------------------------------------------------|
G|--------------------------55555555555---555555555555---------------------|
D|-5555555555---2222222222--55555555555---555555555555---------------------|
A|-5555555555---2222222222--33333333333---777777777777---------------------|
E|-3333333333---0000000000-------------------------------------------------|


e|-------------------------------------------------------------------------|
B|-------------------------------------------------------------------------|
G|--------------------------55555555555---5555-5555-5555-------------------|
D|-5555555555---2222222222--55555555555---5555-5555-5555-------------------|
A|-5555555555---2222222222--33333333333---7777-7777-7777-------------------|
E|-3333333333---0000000000-------------------------------------------------|
 
(guitar 2)
e|-------------------------------------------------------------------------|
B|-------------------------------------------------------------------------|
G|-7/5555/11-11-11-11/-12-12-12/14-14--------------------------------------|
D|-x-xxxx-x--x--x--x---x--x--x--x--x---------------------------------------|
A|-5/7777/9--9--9--9-/-10-10-10/12-12--------------------------------------|
E|-------------------------------------------------------------------------|

back to verse

bridge
e|-----------|
B|-----------|
G|-----------|
D|-2---------|
A|-2---------|
E|-o---------|

e|-------------------------------------------------------------------------|
B|-------------------------------------------------------------------------|
G|--444/555/777/99---------------------------------------------------------|
D|--xxx/xxx-xxx-xx-----2---------------------------------------------------|
A|--222/333/555/77-----2---------------------------------------------------|
E|---------------------0---------------------------------------------------|

e|-------------------------------------------------------------------------|
B|-------------------------------------------------------------------------|
G|--444/555/777/99-----7---------------------------------------------------|
D|--xxx/xxx-xxx-xx-----7-----------------2---------------------------------|
A|--222/333/555/77-----5-----------------2---------------------------------|
E|------------------------------0-3-0-2--0---------------------------------|
 
 then go back to the chorus.


I havent finished the solo at the end but im still working on it.
just listen to the cd to get the right stumming patterns

enjoy and have fun!!

===============================================================================
Добавлено: 22.10.2013
Другие материалы по этой песне:
  • Аккорды и текст

Страница создана 22.10.2013
http://primanota.ru/from-autumn-to-ashes/placentapead-chords.htm
Привет, Гость.
Предлагаем пройти революционный курс по гитаре.
Подарок от PrimaNota.Ru, забирай!