PrimaNota.ru - самый крупный в мире бесплатный архив песенных текстов, аккордов, табулатур и нот


From Autumn To Ashes - On The Offensive - текст песни, таба, видео

Регистрация Запомнить меня
Войти через:  Facebook Google Twitter Vk Yandex Mail.ru

From Autumn To Ashes - On The Offensive - текст песни, таба, видео

Печатать
Просмотров: 122
Song: On the Offensive
Artist: From Autumn to Ashes
Album: Holding a Wolf by the Ears

Guitar 1: Rhythm
Guitar 2: Lead

Tuning: Standard (E A D G B e)

Legend:
p=pull-off
h=hammer-on
x=dead note

Intro (0:00-0:09)
Guitar 1 (Play 2x)
e|------------------------------------------------------------|
B|------------------------------------------------------------|
G|------------------------------------------------------------|
D|3--3-333-333-3-3-333-3-3-333-3-0-0-000-000-0-6-6-666-666-6--|
A|3--3-333-333-3-3-333-3-3-333-3-0-0-000-000-0-6-6-666-666-6--|
E|3--3-333-333-3-3-333-3-3-333-3-0-0-000-000-0-6-6-666-666-6--|

Verse 1 (0:10-0:28)
Guitar 1 (Play 4x) 
e|--------------------------------|
B|--------------------------------|
G|--------------------------------|
D|-3-33-3-3-3-3-333-0-0-00-6-6-6-6|
A|-3-33-3-3-3-3-333-0-0-00-6-6-6-6|
E|-3-33-3-3-3-3-333-0-0-00-6-6-6-6|

Verse 1 (0:10-0:28)
Guitar 2 (Play 4x) 
e|-----------------------------------------------|
B|-----------------------------------------------|
G|-----------------------------------------------|
D|------------13-11-10-8-10-10-10h11p10-8-10-11--|
A|-8-8-10-11-------------------------------------|
E|-----------------------------------------------|

Pre-Chorus 1 (0:28-0:37)
Guitar 1 (Play 2x)
e|-------------------------------------------------------------|
B|-------------------------------------------------------------|
G|-------------------------------------------------------------|
D|-0-0--00-0--06-6-6-63-3-3-3----------------------------------|
A|-0-0--00-0--06-6-6-63-3-3-3----------------------------------|
E|-0-0--00-0--06-6-6-63-3-3-3----------------------------------|

Pre-Chorus 1 (0:28-0:37)
Guitar 2 (Play 4x)
e|---------------------------------------------------------|
B|---------------------------------------------------------|
G|---------------------------------------------------------|
D|---------------------------------------------------------|
A|--------12-10-9-7----------------------------------------|
E|-0-8-10--------------------------------------------------|

Chorus 1 (0:38-0:57)
Guitar 1 (Play 4x)
e|-----------------------------|
B|-----------------------------|
G|-----------------------------|
D|-0-0-00-08-8-8-86-6-6-6--1-1-|
A|-0-0-00-08-8-8-86-6-6-6--1-1-|
E|-0-0-00-08-8-8-86-6-6-6--1-1-|

Verse 2 (0:57-1:16)
Guitar 1 (Play 4x) 
e|--------------------------------|
B|--------------------------------|
G|--------------------------------|
D|-3-33-3-3-3-3-333-0-0-00-6-6-6-6|
A|-3-33-3-3-3-3-333-0-0-00-6-6-6-6|
E|-3-33-3-3-3-3-333-0-0-00-6-6-6-6|

Verse 2 (0:57-1:16)
Guitar 2 (Play 4x) 
e|-----------------------------------------------|
B|-----------------------------------------------|
G|-----------------------------------------------|
D|------------13-11-10-8-10-10-10h11p10-8-10-11--|
A|-8-8-10-11-------------------------------------|
E|-----------------------------------------------|

Pre-Chorus 2 (1:16-1:25)
Guitar 1 (Play 2x)
e|-------------------------------------------------------------|
B|-------------------------------------------------------------|
G|-------------------------------------------------------------|
D|-0-0--00-0--06-6-6-63-3-3-3----------------------------------|
A|-0-0--00-0--06-6-6-63-3-3-3----------------------------------|
E|-0-0--00-0--06-6-6-63-3-3-3----------------------------------|

Pre-Chorus 2 (1:16-1:25)
Guitar 2 (Play 4x)
e|---------------------------------------------------------|
B|---------------------------------------------------------|
G|---------------------------------------------------------|
D|---------------------------------------------------------|
A|--------12-10-9-7----------------------------------------|
E|-0-8-10--------------------------------------------------|

Chorus 1 (1:25-1:45)
Guitar 1 (Play 4x)
e|-----------------------------|
B|-----------------------------|
G|-----------------------------|
D|-0-0-00-08-8-8-86-6-6-6--1-1-|
A|-0-0-00-08-8-8-86-6-6-6--1-1-|
E|-0-0-00-08-8-8-86-6-6-6--1-1-|

Bridge (1:45-2:09)
Guitar 1 (Play 4x)
e|----------------|
B|----------------|
G|----------------|
D|-0-x0-x8-10-6-1-|
A|-0-x0-x8-10-6-1-|
E|-0-x0-x8-10-6-1-|

Solo (2:09-2:32)
Guitar 1 (Play 4x)
e|----------------------------|
B|----------------------------|
G|----------------------------|
D|-0-0-x-x-x-x-x-x-8-10-6-6-1-|
A|-0-0-x-x-x-x-x-x-8-10-6-6-1-|
E|-0-0-x-x-x-x-x-x-8-10-6-6-1-|

Solo (2:09-2:32)
Guitar 2 
e|---------------------------------------------------|
B|-8--9--11--11-13-11-9-11--11-13-11-9-11-9-8-9-8----|
G|---------------------------------------------------|
D|---------------------------------------------------|
A|---------------------------------------------------|
E|---------------------------------------------------|

e|------------------------------------------------------------------|
B|-8--9--11-13-11-9-11-11-13-11-9-11-9-8-9-8----8-------------------|
G|-------------------------------------------10---10-8-10-8-7-8-7-5-|
D|------------------------------------------------------------------|
A|------------------------------------------------------------------|
E|------------------------------------------------------------------|

Pre-Chorus 3 (2:36-2:45)
Guitar 1
e|-------------------------------------------------------------------------------------------------|
B|-------------------------------------------------------------------------------------------------|
G|-------------------------------------------------------------------------------------------------|
D|0-0-000-000-0-0-000-0-0-000-0-3-3-333-333-6-6-6-666-666-6-0-0-000-000-0-0-000-0-0-000-0-888-88886|
A|0-0-000-000-0-0-000-0-0-000-0-3-3-333-333-6-6-6-666-666-6-0-0-000-000-0-0-000-0-0-000-0-888-88886|
E|0-0-000-000-0-0-000-0-0-000-0-3-3-333-333-6-6-6-666-666-6-0-0-000-000-0-0-000-0-0-000-0-888-88886|

Verse 3 (2:46-3:04)
Guitar 1 (Play 4x) 
e|--------------------------------|
B|--------------------------------|
G|--------------------------------|
D|-3-33-3-3-3-3-333-0-0-00-6-6-6-6|
A|-3-33-3-3-3-3-333-0-0-00-6-6-6-6|
E|-3-33-3-3-3-3-333-0-0-00-6-6-6-6|

Verse 3 (2:46-3:04)
Guitar 2 (Play 4x) 
e|-----------------------------------------------|
B|-----------------------------------------------|
G|-----------------------------------------------|
D|------------13-11-10-8-10-10-10h11p10-8-10-11--|
A|-8-8-10-11-------------------------------------|
E|-----------------------------------------------|

Outro (3:23-3:42)
Guitar 1
e|---------------------------------------------------|
B|---------------------------------------------------|
G|---------------------------------------------------|
D|-1---1-3--0----------------------------------------|
A|-1---1-3--0----------------------------------------|
E|-1---1-3--0----------------------------------------|
Добавлено: 18.09.2013
Другие материалы по этой песне:
  • Аккорды и текст

Страница создана 29.03.2012
http://primanota.ru/from-autumn-to-ashes/on-the-offensive-chords.htm
Привет, Гость.
Предлагаем пройти революционный курс по гитаре.
Подарок от PrimaNota.Ru, забирай!