PrimaNota.ru - самый крупный в мире бесплатный архив песенных текстов, аккордов, табулатур и нот


From Autumn To Ashes - No Trivia - текст песни, таба, бас-таба, видео

Регистрация Запомнить меня
Войти через:  Facebook Google Twitter Vk Yandex Mail.ru

From Autumn To Ashes - No Trivia - текст песни, таба, бас-таба, видео

Печатать
Просмотров: 124
No Trivia

Form Autumn To Ashes

Tabb by Gerald Catague

Tuning: Standard

/-slide dwon
\-slide-up
.-PM


Comments/Rants/Corrections:catague1902@yahoo.com
===============================================================

Great Song...by the best band in the world..work out timing etc
for yourselves because im too damn lazy.
===============================================================


(Note: don't' forget to listing the song for get the timing... )

Intro
Repeat 2x  then do this 2x again
|-------------------|-------------------|
|----4------4-------|---4---------------|
|-----6------6------|----6------4-------|
|-------------------|------------6------|
|--4-----4----------|--0-----0----------|
|-------------------|-------------------|

verse Guitar  1
|-------------------|-------------------|
|----4------4-------|---4---------------|
|-----6------6------|----6------4-------|
|-------------------|------------6------|
|--4-----4----------|--0-----0----------|
|-------------------|-------------------|

Guitar  2

|-----------------0-------|-----------------0-------|
|--------4----------4-----|--------4----------4-----|
|------6--------------6---|------6--------------6---|
|-------------------------|-------------------------|
|---4-------------------4-|---0-------------------0-|
|-------------------------|-------------------------|

chorus
.work out strumming for yourself!
Guitar 1
|--------------------------------------------------------|
|--------------------------------------------------------|
|------------------------------------9\11\13----xxxxxxx--|
|-7-7-7-7-\8/7-----4-4-4-4\6-6-6-6---x--x--x----xxxxxxx--|
|-5-5-5-5-\6/5-----2-2-2-2\4-4-4-4---7\-9\11----xxxxxx---|
|--------------------------------------------------------|

Guitar  2
|---------------------------777-----777------------------------|
|-------------------------------555---555----------------------|
|-7-7-7-7-\8/7-------------------------------9\11\13----xxxxxx-|
|-x-x-x-x-\x/x-----4-4-4-4--------------------x--x-x----xxxxxx-|
|-5-5-5-5-\6/5-----2-2-2-2--------------------7\9-\11---xxxxxx-|
|--------------------------------------------------------------|

verse Guitar  1
|-------------------|-------------------|
|----4------4-------|---4---------------|
|-----6------6------|----6------4-------|
|-------------------|------------6------|
|--4-----4----------|--0-----0----------|
|-------------------|-------------------|

Guitar  2

|-----------------0-------|-----------------0-------|
|--------4----------4-----|--------4----------4-----|
|------6--------------6---|------6--------------6---|
|-------------------------|-------------------------|
|---4-------------------4-|---0-------------------0-|
|-------------------------|-------------------------|


chorus
.work out strumming for yourself!
Guitar 1
|--------------------------------------------------------|
|--------------------------------------------------------|
|------------------------------------9\11\13----xxxxxxx--|
|-7-7-7-7-\8/7-----4-4-4-4\6-6-6-6---x--x--x----xxxxxxx--|
|-5-5-5-5-\6/5-----2-2-2-2\4-4-4-4---7\-9\11----xxxxxx---|
|--------------------------------------------------------|

Guitar 2
|---------------------------777-----777------------------------|
|-------------------------------555---555----------------------|
|-7-7-7-7-\8/7-------------------------------9\11\13----xxxxxx-|
|-x-x-x-x-\x/x-----4-4-4-4--------------------x--x-x----xxxxxx-|
|-5-5-5-5-\6/5-----2-2-2-2--------------------7\9-\11---xxxxxx-|
|--------------------------------------------------------------|


Guitar  1 only
|-------------------|-------------------|
|----4------4-------|---4---------------|
|-----6------6------|----6------4-------|
|-------------------|------------6------|
|--4-----4----------|--0-----0----------|
|-------------------|-------------------|

Guitar 2
and gt 2  do this....
(2x)
|--------------------------------------------------------|
|--------------------------------------------------------|
|--------------------------------------------------------|
|--5-5-5-5----4-4-4-4---6-6-6-6----8-8-8-8---5-5-5-5-----|
|--7-7-7-7----2-2-2-2---4-4-4-4----6-6-6-6---7-7-7-7-----|
|--------------------------------------------------------|
   . . . .    . . . .   . . . .     . . . .  . . . .


and do this like chorus part
Guitar  1
|--------------------------------------------------------|
|--------------------------------------------------------|
|------------------------------------9\11\13----xxxxxxx--|
|-7-7-7-7-\8/7-----4-4-4-4\6-6-6-6---x--x--x----xxxxxxx--|
|-5-5-5-5-\6/5-----2-2-2-2\4-4-4-4---7\-9\11----xxxxxxx--|
|--------------------------------------------------------|

Guitar  2-
|---------------------------777-----777-------------------------|
|-------------------------------555---555-----------------------|
|-7-7-7-7-\8/7--------------------------------9\11\13----xxxxxx-|
|-x-x-x-x-\x/x-----4-4-4-4--------------------x--x-x----xxxxxx--|
|-5-5-5-5-\6/5-----2-2-2-2--------------------7\9-\11---xxxxxx--|
|---------------------------------------------------------------|


(2x)
Guitar  1
.work out strumming for yourself!
|--------------------------------------------------------|
|--------------------------------------------------------|
|------------------------------------9\11\13----xxxxxxx--|
|-7777777----------4444444\6666666---x--x--x----xxxxxxx--|
|-5555555----------2222222\4444444---7\-9\11----xxxxxxx--|
|--------------------------------------------------------|

Guitar  2
|---------------------------777-----777---------------------------|
|-------------------------------555---555-------------------------|
|-77777777-----4444444---------------------9\11\13---------xxxxxx-|
|-xxxxxxxx-----xxxxxxx---------------------x--x-x---------xxxxxx--|
|-55555555-----2222222---------------------7\9-\11--------xxxxxx--|
|-----------------------------------------------------------------|

end
|-----------------|
|-----------------|
|-----11/13-~~~~--|
|------x/-x-~~~~--|
|------9/11-~~~~--|
|-----------------|
Добавлено: 08.07.2013
Другие материалы по этой песне:

Страница создана 18.03.2012
http://primanota.ru/from-autumn-to-ashes/no-trivia-chords.htm
Привет, Гость.
Предлагаем пройти революционный курс по гитаре.
Подарок от PrimaNota.Ru, забирай!