PrimaNota.ru - самый крупный в мире бесплатный архив песенных текстов, аккордов, табулатур и нот


From Autumn To Ashes - Milligram Smile - аккорды и текст, таба, бас-таба, драм-таба, видео

Регистрация Запомнить меня
Войти через:  Facebook Google Twitter Vk Yandex Mail.ru

From Autumn To Ashes - Milligram Smile - аккорды и текст, таба, бас-таба, драм-таба, видео

Печатать
Просмотров: 114
Уроки эстрадного вокала в Санкт-Петербурге
Milligram Smile
From Autumn To Ashes
Author/Artist: From Autumn To Ashes
Title: Milligram Smile
Album: The Fiction We Live
Transcribed by: Ed Arsenault
Email: ed2118@hotmail.com

Standard Tuning

Listen to the song to pick up the strum and little pieces that arent in this tab
because they are so msall that you cant even really hear em (but if you wanna
be perfect, listen for it) anyways this is only the rhythm guitar, the lead guitar
is a whole diff ballgame :)

-|----------------------------------------------------------------------------
-|----------------------------------------------------------------------------
-|--9-------7-------5-------7x7x7---------------------------------------------
-|--9-------7-------3-------7x7x7---------------------------------------------
-|--7-------5-------3-------5x5x5---------------------------------------------
-|----------------------------------------------------------------------------
    intro    (all of my hopes and all of my dreams...)

-|----------------------------------------------------------------------------
-|----------------------------------------------------------------------------
-|-5x5x5-5-5------------------------------------------------------------------
-|-5x5x5-5-5----------2x2x2--2-2----------------------------------------------
-|-3x3x3-3-3----------2x2x2--2-2----------------------------------------------
-|--------------------0x0x0--0-0----------------------------------------------
   verse1    (im a writer and a poet...)

-|----------------------------------------------------------------------------
-|----------------------------------------------------------------------------
-|-5--------------------------------------------------------------------------
-|-5------------2-------------------------------------------------------------
-|-3------------2-------------------------------------------------------------
-|--------------0-------------------------------------------------------------
   verse2  (fall with spit, crash and then fall)

-|----------------------------------------------------------------------------
-|----------------------------------------------------------------------------
-|---------------------7--------5---------------------------------------------
-|-2---------5---------7--------5---------------------------------------------
-|-2---------5---------5--------3---------------------------------------------
-|-0---------3----------------------------------------------------------------
   chorus (the words i write, are cheap and trite)

-|--3-3--------3-3--------2h3h2----------3------------------------------------
-|--3---3---3--3---3---3--3----3-----------2----------------------------------
-|--0-----0----0-----0----2------2-----0-----0--------------------------------
-|--2----------0----------0----------2---------2------------------------------
-|--2----------2----------x--------3------------------------------------------
-|--x----------3----------x---------------------------------------------------
   acoustic part (may not be right, but i think its good )

-|----------------------------------------------------------------------------
-|----------------------------------------------------------------------------
-|----------------------------------------------------------------------------
-|-2--------------------------------------------------------------------------
-|-2--------------------------------------------------------------------------
-|-0--------------------------------------------------------------------------
end note


Order of Play:

Intro
Verse1  
Verse2
Chorus
Intro
Acoustic
Chorus  
end note
Добавлено: 05.05.2012
Другие материалы по этой песне:

Страница создана 02.03.2012
http://primanota.ru/from-autumn-to-ashes/milligram-smile-chords.htm
Привет, Гость.
Предлагаем пройти революционный курс по гитаре.
Подарок от PrimaNota.Ru, забирай!