PrimaNota.ru - самый крупный в мире бесплатный архив песенных текстов, аккордов, табулатур и нот


From Autumn To Ashes - Inaprope - таба, видео

Регистрация Запомнить меня
Войти через:  Facebook Google Twitter Vk Yandex Mail.ru

From Autumn To Ashes - Inaprope - таба, видео

Печатать
Просмотров: 77
Уроки эстрадного вокала в Санкт-Петербурге
-------------------------------------------------------------------------------
			     Inaprope - From Autumn To Ashes
-------------------------------------------------------------------------------
Tabbed by: Doyle
Email:fukkindoyle_skateordie@hotmail.com



Intro
  Q=82
  (Cm7)                          (Gm/Bb)
 4/4
  Gtrs I, IV
  E  E E S E S S S  S  S  S  S   +E   E  E S E S S S  S  S  S  S

|------------------------------|---------------------------------|
|----------1--------1----------|-------------3--------3----------|
|------3-----3---------3-----3-|-(3)-(3)-0-----0---------0-----0-|
|----1---1-----1----------1----|------0----0-----0----------0----|
|-3--------------3-(3)---(3)---|--1----------------1-(1)---(1)---|
|------------------------------|---------------------------------|
  H.                E     E       H.                  E     E


                            H=H               Q=93
  (C5/Ab)   (Ab)  (C5/Ab)     G5                B5
                              Gtrs II, III
  +E   E  E S E S E S S S S   E E E E E E E E   E E E E E E E E
|---------------------------|-----------------|-----------------||
|---------------------------|-----------------|-----------------||
|-(0)-(0)-------------------|-----------------|-----------------||
|---------5---6-----5-------|-5-5-5-5-5-5-5-5-|-9-9-9-9-9-9-9-9-||
|------3--------3-----3---3-|-5-5-5-5-5-5-5-5-|-9-9-9-9-9-9-9-9-||
|--4--------4-----4-----4---|-3-3-3-3-3-3-3-3-|-7-7-7-7-7-7-7-7-||
   W


 Verse
  $
  C5      G5        Ab5     F5  B5    C5      G5        Ab5     F5
  E E E E E E E E   E E E E E E E E   E E E E E E E E   E E E E E E E E
|-----------------|-----------------|-----------------|------------------|
|-----------------|-----------------|-----------------|------------------|
|-5-5-5-5---------|-------------4-4-|-5-5-5-5---------|------------------|
|-5-5-5-5-5-5-5-5-|-6-6-6-6-3-3-4-4-|-5-5-5-5-5-5-5-5-|-6-6-6-6-3-3-3-3--|
|-3-3-3-3-5-5-5-5-|-6-6-6-6-3-3-2-2-|-3-3-3-3-5-5-5-5-|-6-6-6-6-3-3-3-3--|
|---------3-3-3-3-|-4-4-4-4-1-1-----|---------3-3-3-3-|-4-4-4-4-1-1-1-1--|


  C5      G5        Ab5     F5  B5    G5                B5
  E E E E E E E E   E E E E E E E E   E E E E E E E E   E E E E E Q.
|-----------------|-----------------|-----------------|-----------------||
|-----------------|-----------------|-----------------|-----------------||
|-5-5-5-5---------|-------------4-4-|-----------------|-----------------||
|-5-5-5-5-5-5-5-5-|-6-6-6-6-3-3-4-4-|-5-5-5-5-5-5-5-5-|-9-9-9-9-9-------||
|-3-3-3-3-5-5-5-5-|-6-6-6-6-3-3-2-2-|-5-5-5-5-5-5-5-5-|-9-9-9-9-9-------||
|---------3-3-3-3-|-4-4-4-4-1-1-----|-3-3-3-3-3-3-3-3-|-7-7-7-7-7-------||


   Chorus
    C5
    Gtr II
     S  S  S  S  S  S  S  S  S  S  S  S  S  S  S  S
||--------------------------------------------------|
||o-------------------------------------------------|
||--12-12-12-12-12-12-12-12-12-12-12-12-12-15-15-15-|
||--------------------------------------------------|
||o-10-10-10-10-10-10-10-10-10-10-10-10-10-13-13-13-|
||--------------------------------------------------|
|
|   Gtr III
|    S  S  S  S  S  S  S  S  S  S  S  S  S  S  S  S
||--------------------------------------------------|
||o-------------------------------------------------|
||---5--5--5--5--5--5--5--5--5--5--5--5--5--5--5--5-|
||---5--5--5--5--5--5--5--5--5--5--5--5--5--5--5--5-|
||o--3--3--3--3--3--3--3--3--3--3--3--3--3--3--3--3-|
||--------------------------------------------------|


  Bb5                     Ab5         G5
   S  S  S  S  S  S  S  S  S  S  S  S  S  S  S  S
|-------------------------------------------------|
|-------------------------------------------------|
|-15-15-15-15-15-15-15-15-13-13-13-13-12-12-12-12-|
|-------------------------------------------------|
|-13-13-13-13-13-13-13-13-11-11-11-11-10-10-10-10-|
|-------------------------------------------------|
|
|  S  S  S  S  S  S  S  S  S  S  S  S  S  S  S  S
|-------------------------------------------------|
|-------------------------------------------------|
|--3--3--3--3--3--3--3--3-------------------------|
|--3--3--3--3--3--3--3--3--6--6--6--6--5--5--5--5-|
|--1--1--1--1--1--1--1--1--6--6--6--6--5--5--5--5-|
|--------------------------4--4--4--4--3--3--3--3-|


  Ab5
   S  S  S  E   S E   +S  S S S S S S S
|---------------------------------------|
|---------------------------------------|
|-13-13-13-12---8-8---(8)-8-8-8-8-8-8-8-|
|---------------------------------------|
|-11-11-11-10---6-6---(6)-6-6-6-6-6-6-6-|
|---------------------------------------|
|
|  S  S  S  S S S S S  S  S S S S S S S
|---------------------------------------|
|---------------------------------------|
|---------------------------------------|
|--6--6--6--6-6-6-6-6--6--6-6-6-6-6-6-6-|
|--6--6--6--6-6-6-6-6--6--6-6-6-6-6-6-6-|
|--4--4--4--4-4-4-4-4--4--4-4-4-4-4-4-4-|


                                        D.S.
  Eb5          Bb5
   S   S  S  E  S  E  +S   S  S  S  S  S  S  S
|-----------------------------------------------||
|----------------------------------------------o||
|-13--13-13-12-10-10-(10)-10-10-10-13-13-13-13--||
|-----------------------------------------------||
|-11--11-11-10--8--8--(8)--8--8--8-11-11-11-11-o||
|-----------------------------------------------||
|
|  E.        E  Q          S  S  S  S  S  S  S
|-----------------------------------------------||
|----------------------------------------------o||
|--8---------8--3----------3--3--3--3--3--3--3--||
|--8---------8--3----------3--3--3--3--3--3--3--||
|--6---------6--1----------1--1--1--1--1--1--1-o||
|-----------------------------------------------||


   Bridge
    C5                 Bb5                Ab5                Eb5Bb5
    Gtr I
    E E E S E E. E E   E E E S E E. E E   E E E S E. E E E   W
||-------------------|------------------|------------------|-----------||
||o------------------|------------------|------------------|----------o||
||------3-----3----3-|-----3-----3----3-|------------------|-----------||
||----1-----1--------|---0-----0--------|-----6---5--------|-----------||
||o-3-----3------3---|-1-----1------1---|---3---3----3---3-|----------o||
||-------------------|------------------|-4------------4---|-6---------||
|
|   Gtrs II, III
|   W                  W                  W                  Q  H.
||-------------------|------------------|------------------|-----------||
||o------------------|------------------|------------------|----------o||
||--5----------------|-3----------------|------------------|-8---------||
||--5----------------|-3----------------|-6----------------|-8--8------||
||o-3----------------|-1----------------|-6----------------|-6--8-----o||
||-------------------|------------------|-4----------------|----6------||


   Interlude
    N.C.
    Gtrs II, III
    S S S S  S  S  S  S  S  S  S  S  S  S  S  S
||----------------------------------------------|
||o---------------------------------------------|
||--8-8-8-8-10-10-10-10-12-12-12-12-10-10-10-10-|
||----------------------------------------------|
||o-6-6-6-6--8--8--8--8-10-10-10-10--8--8--8--8-|
||----------------------------------------------|


  S S S S  S  S  S  S  S  S  S  S  S  S  S  S
|---------------------------------------------|
|---------------------------------------------|
|-8-8-8-8-10-10-10-10-12-12-12-12-10-10-10-10-|
|---------------------------------------------|
|-6-6-6-6--8--8--8--8-10-10-10-10--8--8--8--8-|
|---------------------------------------------|


  Ab5              G5
  Gtr II
   E    S  S  S  S  E.  S  S  S  S  S  S  S
|-------------------------------------------|
|-------------------------------------------|
|-13---13-13-13-15-12--12-12-12-12-12-12-12-|
|-------------------------------------------|
|-11---11-11-11-13-10--10-10-10-10-10-10-10-|
|-------------------------------------------|
|
| Gtr III
|  S E     E     S  E.  S  S  S  S  S  S  S
|-------------------------------------------|
|-------------------------------------------|
|-------------------------------------------|
|--6-6-----6-----6--5---5--5--5--5--5--5--5-|
|--6-6-----6-----6--5---5--5--5--5--5--5--5-|
|--4-4-----4-----4--3---3--3--3--3--3--3--3-|


  Ab5              G5
   E    S  S  S  S  E.  S  S  S  S  S  S  S
|--------------------------------------------||
|-------------------------------------------o||
|-13---13-13-13-15-12--12-12-12-12-12-12-12--||
|--------------------------------------------||
|-11---11-11-11-13-10--10-10-10-10-10-10-10-o||
|--------------------------------------------||
|
|  S E     E     S  E.  S  S  S  S  S  S  S
|--------------------------------------------||
|-------------------------------------------o||
|--------------------------------------------||
|--6-6-----6-----6--5---5--5--5--5--5--5--5--||
|--6-6-----6-----6--5---5--5--5--5--5--5--5-o||
|--4-4-----4-----4--3---3--3--3--3--3--3--3--||


   Out-Chorus
    C5
     S  S  S  S  S  S  S  S  S  S  S  S  S  S  S  S
||--------------------------------------------------|
||o-------------------------------------------------|
||--12-12-12-12-12-12-12-12-12-12-12-12-12-15-15-15-|
||--------------------------------------------------|
||o-10-10-10-10-10-10-10-10-10-10-10-10-10-13-13-13-|
||--------------------------------------------------|
|
|    S  S  S  S  S  S  S  S  S  S  S  S  S  S  S  S
||--------------------------------------------------|
||o-------------------------------------------------|
||---5-----5-----5-----5-----5-----5-----5-----5----|
||---5-----5-----5-----5-----5-----5-----5-----5----|
||o--3-----3-----3-----3-----3-----3-----3-----3----|
||--------------------------------------------------|


  Bb5                     Ab5         G5
   S  S  S  S  S  S  S  S  S  S  S  S  S  S  S  S
|-------------------------------------------------|
|-------------------------------------------------|
|-15-15-15-15-15-15-15-15-13-13-13-13-12-12-12-12-|
|-------------------------------------------------|
|-13-13-13-13-13-13-13-13-11-11-11-11-10-10-10-10-|
|-------------------------------------------------|
|
|  S  S  S  S  S  S  S  S  S  S  S  S  S  S  S  S
|-------------------------------------------------|
|-------------------------------------------------|
|--3-----3-----3-----3----------------------------|
|--3-----3-----3-----3-----6-----6-----5-----5----|
|--1-----1-----1-----1-----6-----6-----5-----5----|
|--------------------------4-----4-----3-----3----|


  Ab5
   S  S  S  E   S E   +S  S S S S S S S
|---------------------------------------|
|---------------------------------------|
|-13-13-13-12---8-8---(8)-8-8-8-8-8-8-8-|
|---------------------------------------|
|-11-11-11-10---6-6---(6)-6-6-6-6-6-6-6-|
|---------------------------------------|
|
|  S  S  S  S S S S S  S  S S S S S S S
|---------------------------------------|
|---------------------------------------|
|---------------------------------------|
|--6-----6----6---6----6----6---6---6---|
|--6-----6----6---6----6----6---6---6---|
|--4-----4----4---4----4----4---4---4---|


 1.
  Eb5          Bb5
   S   S  S  E  S  E  +S   S  S  S  S  S  S  S
|-----------------------------------------------||
|----------------------------------------------o||
|-13--13-13-12-10-10-(10)-10-10-10-13-13-13-13--||
|-----------------------------------------------||
|-11--11-11-10--8--8--(8)--8--8--8-11-11-11-11-o||
|-----------------------------------------------||
|
|  E.        E  Q          S  S  S  S  S  S  S
|-----------------------------------------------||
|----------------------------------------------o||
|--8---------8--3----------3--3--3--3--3--3--3--||
|--8---------8--3----------3--3--3--3--3--3--3--||
|--6---------6--1----------1--1--1--1--1--1--1-o||
|-----------------------------------------------||


  2.
  Eb5          Bb5                  C5
   S   S  S  E  S  E  +Q.       E    W
|---------------------------------|-------*|
|---------------------------------|-------*|
|-13--13-13-12-10-10-(10)------13-|-12----*|
|---------------------------------|-------*|
|-11--11-11-10--8--8--(8)------11-|-10----*|
|---------------------------------|-------*|
|
|  E.        E  H          +E.       W
|---------------------------------|-------*|
|---------------------------------|-------*|
|--8---------8--3----------(3)----|--5----*|
|--8---------8--3----------(3)----|--5----*|
|--6---------6--1----------(1)----|--3----*|
|---------------------------------|-------*|
Добавлено: 16.11.2013
Вам также может быть интересно:
Другие материалы по этой песне:
  • Аккорды и текст

Страница создана 16.11.2013
http://primanota.ru/from-autumn-to-ashes/inaprope-chords.htm
Привет, Гость.
Предлагаем пройти революционный курс по гитаре.
Подарок от PrimaNota.Ru, забирай!