PrimaNota.ru - самый крупный в мире бесплатный архив песенных текстов, аккордов, табулатур и нот


From Autumn To Ashes - Eulogy For An Angel - аккорды и текст, бас-таба, видео

Регистрация Запомнить меня
Войти через:  Facebook Google Twitter Vk Yandex Mail.ru

From Autumn To Ashes - Eulogy For An Angel - аккорды и текст, бас-таба, видео

Печатать
Просмотров: 108
Eulogy For An Angel
From Autumn To Ashes
-----------------------------------------------------------------------
			     Eulogy For An Angel - From Autumn To Ashes
-------------------------------------------------------------------------------
Tabbed by: Andrew Cannell
Email: deathless_one@hotmail.com

| /  slide up
|   slide down
| h  hammer-on
| p  pull-off
| ~  vibrato
| +  harmonic
| x  Mute note
===============================================================================

Intro:
Guitar 1
e|-----------------------------------------------
b|-----------------------------------------------
g|-----------------------------------------------
D|--2-4--2-4--4--0-4--0-4-5-4-2-0----4--4---0-4-0
A|---------------------------------3---3--3------
E|-----------------------------------------------

x2
e|-------------------------------------------------------
b|-------------------------------------------------------
g|-------------------------------------------------------
D|--2--2-4/5-45-5/7-545-5/9-797-9/12-12/14---------------
A|-------------------------------------------------------
E|-------------------------------------------------------

Guitar 2

e|-----------------------------------------------
b|-----------------------------------------------
g|-----------------------------------------------
D|--99--99-99--77--77-77--55--55-55--77-77-------
A|--77--77-77--55--55-55--33--33-33--55-55-------
E|--00--00-00--00--00-00--00--00-00--00-00-------

x2
e|---------------------------------------------------------
b|---------------------------------------------------------
g|---------------------------------------------------------
D|--2-4--2-4--4--0-4--0-4-5-4-2-0----4--4---540-540-540-540
A|---------------------------------3---3--3----------------
E|---------------------------------------------------------


Verse:

Guitar 1
x4
e|-------------------------------------------------------
b|-------------------------------------------------------
g|-------------------------------------------------------
D|--2-4--2-4--4--0-4--0-4--4------4--4---0-4-0-4-54------
A|-------------------------------3--3--3------------------
E|--------------------------------------------------------

Guitar 2
x2
e|---------------------------------------------------------
b|---------------------------------------------------------
g|---------------------------------------------------------
D|--2-4--2-4--4--0-4--0-4-5-4-2-0----4--4---540-540-540-540
A|---------------------------------3---3--3----------------
E|---------------------------------------------------------


Guitar 2 (acoustic)

e|----------------------------------------------------------------------
b|----------------------------------------------------------------------
g|------0~------0~--------0~------0~-------0~------0~-------0~------0~--
D|----4~------4~--------4~------4~--4~----4~------4~-------4~------4~-4~
A|--7~------7~--------7~------7~-------5~------5~-------5~------5~------
E|----------------------------------------------------------------------

e|------------------------------------------------------------------
b|------------------------------------------------------------------
g|------0~------0~--------0~------0~--------0~------0~--------------
D|----4~------4~--------4~------4~--4~----4~------4~----------------
A|--3~------3~--------3~------3~--------5~------5~------------------
E|------------------------------------------------------------------
--------------------------------------------------------------------
Chourus:

Guitar 2 
e|-----------------------------------------------------
b|-----------------------------------------------------
g|-----------------------------------------------------
D|--9-9-9-9-9-9-9-9------------------------------------
A|--7-7-7-7-7-7-7-7------------------------------------
E|--0-0-0-0-0-0-0-0------------------------------------
    x x x x x x x x 

Guitar 1 (Pick Slide)
*********************
Guitar 2

x2
e|--------------------------------------------------------------------------------
b|--------------------------------------------------------------------------------
g|--------------------------------------------------------------------------------
D|--9-9-9-9-9-9-9-11-11-11-11-11-11-11-12-12-12-12-12-12-12-14-14-14-14-14-14-14--
A|--7-7-7-7-7-7-7-9--9--9--9--9--9--9--10-10-10-10-10-10-10-12-12-12-12-12-12-12--
E|--0-0-0-0-0-0-0-0--0--0--0--0--0--0--0--0--0--0--0--0--0--0--0--0--0--0--0--0---
      x x   x x      x  x     x  x        x  x     x  x        x  x     x  x  

Play one bar from part 1, then play part 2. Continue this pattern.
Guitar 1 & 2 - Part One
e|-----------|-----------|-----------|-----------|----------------------
b|-5-6-5-351-|-5-6-5-351-|-5-6-5-358-|-5-6-5-351-|-5-6-5-358-5-6-5-351--
g|-----------|-----------|-----------|-----------|----------------------
D|-----------|-----------|-----------|-----------|----------------------
A|-----------|-----------|-----------|-----------|----------------------
E|-----------|-----------|-----------|-----------|----------------------

Guitars 1 & 2 - Part Two
e|----------------------------------------------
b|----------------------------------------------
g|----------------------------------------------
D|----------------------------------------------
A|-9999999-10101010-9999999-7777777-9999-555555-
E|-7777777-8-8-8-8--7777777-5555555-7777-333333-
*Very Quick Strumming


x2
e|------------------------------------|--------------------------------------------
b|-5--5-5-5/6--6-6-6-3--3-3/5-5-5-3-5-|-5--5-5-5/6--6-6-6/8--8-8-8--10-10-10p------
g|------------------------------------|--------------------------------------------
D|------------------------------------|--------------------------------------------
A|------------------------------------|--------------------------------------------
E|------------------------------------|--------------------------------------------


Repeat Intro

Repeat Verse

Guitar 2

e|-----------------------------------------------------------
b|-----------------------------------------------------------
g|-----------------------------------------------------------
D|--2-2-2-2-2-2-2-2-2-2-2-2-2-2-2-2-2-2-2--9~~---------------
A|--2-2-2-2-2-2-2-2-2-2-2-2-2-2-2-2-2-2-2--7~~---------------
E|--0-0-0-0-0-0-0-0-0-0-0-0-0-0-0-0-0-0-0--0~~---------------

x2
e|----------------------------------------
b|----------------------------------------
g|----------------------------------------
D|--2-2-2-222-2-2---2-2-2-2-2-22-------9~~
A|--2-2-2-222-2-2---2-2-2-2-2-22-------7~~
E|--0-0-0-000-0-0---0-0-0-0-0-00-------0~~
    x x x xxx x x   x x x x x x 



e|-------------------------------------------------
b|-------------------------------------------------
g|-------------------------------------------------
D|----9~~-------9~~------9~~--------9~~-------9p---
A|----7~~-------7~~------7~~--------7~~-------7p---
E|----0~~-------0~~------0~~--------0~~-------0p---



Guitar 1
x8
e|-------------------
b|-----56535686------
g|-------------------
D|-------------------
A|-------------------
E|-------------------
*Played Fast


Guitar 2
x7
e|----------------------------------------
b|----------------------------------------
g|----------------------------------------
D|--2-2-2-222-2-2---2-2-2-2-2-22----------
A|--2-2-2-222-2-2---2-2-2-2-2-22----------
E|--0-0-0-000-0-0---0-0-0-0-0-00----------
    x x x xxx x x   x x x x x xx
*Guitar 1 Joins This after finishing it's part.
Добавлено: 10.03.2012
Другие материалы по этой песне:

Страница создана 05.03.2012
http://primanota.ru/from-autumn-to-ashes/eulogy-for-an-angel-chords.htm
Привет, Гость.
Предлагаем пройти революционный курс по гитаре.
Подарок от PrimaNota.Ru, забирай!