PrimaNota.ru - самый крупный в мире бесплатный архив песенных текстов, аккордов, табулатур и нот


From Autumn To Ashes - Daylight Slavings - таба, видео

Регистрация Запомнить меня
Войти через:  Facebook Google Twitter Vk Yandex Mail.ru

From Autumn To Ashes - Daylight Slavings - таба, видео

Печатать
Просмотров: 54
===========================================================================
                            DAYLIGHT SLAVINGS
===========================================================================

Tabbed by Jayke

DROPPED D TUNING (DADGBE)

Not sure if 100% but its pretty close. Enjoy.
Sorry not to include how many times to play riffs 
but i"m sure you"ll work it out.




INTRO:

Gat 1
E|-----------------------------------------------------------|  
B|-HOLD-----------------------TAP-THESE----------------------|  
G|--7-------14-10-14-10-14-10-14-10-15-10-15-10-15-10-15-17--|
D|-----------------------------------------------------------|
A|-----------------------------------------------------------|
D|-----------------------------------------------------------|
*Any confusion dont hesitate to ask.

Gat 2
E|-----------------------------------------------------------------|
B|-----------------------------------------------------------------|
G|-----------------------------------------------------------------|
D|--0000-0000-0000-8888-8888-88-10--0000-0000-0000-8888-8888-88/10-|
A|--0000-0000-0000-8888-8888-88-10--0000-0000-0000-8888-8888-88/10-|
D|--0000-0000-0000-8888-8888-88-10--0000-0000-0000-8888-8888-88/10-|
    **** **** **** **** **** **     **** **** **** **** ****

VERSE:

Gat 1
E|-----------------------------------------------------------|  
B|-HOLD-----------------------TAP-THESE----------------------|  
G|--7-------14-10-14-10-14-10-14-10-15-10-15-10-15-10-15-17--|
D|-----------------------------------------------------------|
A|-----------------------------------------------------------|
D|-----------------------------------------------------------|

Gat 2
E|-------------------------------------|
B|-------------------------------------|
G|-------------------------------------|
D|--0000000000h333/8888888888/101010---|
A|--0000000000h333/8888888888/101010---|
D|--0000000000h333/8888888888/101010---|

PRE CHORUS:

Gat 1
E|-------------------------------------------------------------------------|
B|-------------------------------------------------------------------------|
G|-------------------------------------------------------------------------|
D|--7-8-7-8-7-8-7-8-7-8-7-8-7-8-7-8-8-10-8-10-8-10-8-10-8-10-8-10-8-10-8-10|
A|-------------------------------------------------------------------------|
D|-------------------------------------------------------------------------|

Cont...
E|-------------------------------------------------------------------------|
B|-------------------------------------------------------------------------|
G|-------------------------------------------------------------------------|
D|--7-8-7-8-7-8-7-8-7-8-7-8-7-8-7-8-10-12-10-12-10-12-10-12-10-12-10-12----|
A|-------------------------------------------------------------------------|
D|-------------------------------------------------------------------------|

Gat 2
E|----------------------------|
B|----------------------------|
G|----------------------------|
D|--7~----8~----3~----2~------|
A|--7~----8~----3~----3~------|
D|--7~----8~----3~----2~------|

CHORUS:

Gat 1
E|-----------------------------------------------------------|  
B|-HOLD-----------------------TAP-THESE----------------------|  
G|--7-------14-10-14-10-14-10-14-10-15-10-15-10-15-10-15-17--|
D|-----------------------------------------------------------|
A|-----------------------------------------------------------|
D|-----------------------------------------------------------|

Gat 2
E|------------------------------------------------|
B|------------------------------------------------|
G|------------------------------------------------|
D|--0000-00-0000-00-0000-8888-88-8888-88-8h101010-|
A|--0000-00-0000-00-0000-8888-88-8888-88-8h101010-|
D|--0000-00-0000-00-0000-8888-88-8888-88-8h101010-|
         **      **           **      **

VERSE
PRE CHORUS
CHORUS


BREAKDOWN THINGY

Both guitars
E|-----------------|
B|-----------------|
G|-----------------|
D|--0000-0000-000--|
A|--0000-0000-000--|
D|--0000-0000-000--|
    **** **** ***

E|-----------------------------|
B|-----------------------------|
G|----------9---------9-----10-| Fast palm muting.
D|--000-000-7-000-000-7-000-7--|
A|--000-000-7-000-000-7-000-7--|
D|--000-000---000-000---000----|
    *** ***   *** ***   ***

E|------------------------|
B|--6~--8~--10~-15~--13~--|
G|--x~--x~--x~--x-~--x-~--| Towards the end.
D|--3~--5~--7~--12~--10~--|
A|------------------------|
D|------------------------|


PRE CHORUS
CHORUS


END WITH

Gat1
E---------|
B---------|
G--9-10-7-|
D--x-x--x-|
A--7-8--5-|
D---------|

Gat 2
E|--------|
B|--------|
G|--------|
D|--7-8-0-|
A|--7-8-0-|
D|--7-8-0-|


Thanks please rate


Добавлено: 01.11.2013
Другие материалы по этой песне:
  • Аккорды и текст

Страница создана 01.11.2013
http://primanota.ru/from-autumn-to-ashes/daylight-slavings-chords.htm
Привет, Гость.
Предлагаем пройти революционный курс по гитаре.
Подарок от PrimaNota.Ru, забирай!