PrimaNota.ru - самый крупный в мире бесплатный архив песенных текстов, аккордов, табулатур и нот


From Autumn To Ashes - All I Taste Today Is Whats Her Name - таба, бас-таба, видео

Регистрация Запомнить меня
Войти через:  Facebook Google Twitter Vk Yandex Mail.ru

From Autumn To Ashes - All I Taste Today Is Whats Her Name - таба, бас-таба, видео

Печатать
Просмотров: 88
Tuning: Standard

E|--------------------------------------------------------||
B|--------------------------------------------------------||
G|-----------------7-5------------------------------------||
D|-4-5-7---4-5-4-0----------------------------------------||
A|--------------------------------------------------------||
E|----------------------000000----------------------------||
                        ......
0:06  x5
E|----------------------------------------------------------||
B|----------------------------------------------------------||
G|----------------------------------------------------------||
D|--------54-----4p2-2-----5-7----5-5h7-5-0-----------------||
A|----------------------------------------------------------||
E|-000000-----000--------00-----00--------------------------||
   ......     ...        ..     ..

0:27
E|--------------------------------------------------------||
B|--------------------------------------------------------||
G|--------------------------------------------------------||
D|--------------------------------------------------------||
A|--------------------------------------------------------||
E|-00000-0000-000000-00-00000-00000-000000-00-------------||
   ..... .... ...... .. ..... ..... ...... ..

0:34
E|--------------------------------------------------------||
B|------12------12----------------12------12--------------||
G|------15------15----------------15------15--------------||
D|--------------------------------------------------------||
A|--------------------------------------------------------||
E|-0000----0000----00000-00--0000----0000-----00000-00----||
   ....    ....    ..... ..  ....    ....     ..... ..

0:42
E|-----------------------------||
B|-----------------------------||
G|-----------------------------||
D|---2-----------2-------------||
A|---2-----------2----pick-----||
E|---0-----------0----slide----||


0:56
E|--------------------------------------------------------||
B|--------------------------------------------------------||
G|----------------------------------------5-554-0-000-----||
D|----4h5-55-4-0-0000--0-4h5-55-4-0-0000------------------||x2
A|--------------------------------------------------------||
E|--------------------------------------------------------||


1:50
E|----------------------------------||
B|----------------------------------||
G|----------------------------------||
D|--5-4-0-----5-4-0-----------------||
A|----------------------------------||
E|----------------------------------||


1:54
E|-------------------------------------------------------------||
B|-------------------------------------------------------------||
G|-----------------------------------5-5h7----5-5h7-5-0--------||
D|------5h4-----4p2-2------------------------------------------||x4
A|-------------------------------------------------------------||
E|-0000-----000-------0000--------00-------00------------------||
   ....     ...       ....        ..       ..

2:15
E|--------------------------------------------------------||
B|--------------------------------------------------------||
G|--0-5-0-7--0-5-0-5h7-5-0--------------------------------||
D|--------------------------------------------------------||
A|--------------------------------------------------------||
E|--------------------------------------------------------||


2:44
E|--------------------------------------------------------||
B|--------------------------------------------------------||
G|----------5-4-0------------5-4-7------------------------||
D|---5-4-0-------------5-4-0------------------------------||x2
A|--------------------------------------------------------||
E|--------------------------------------------------------||

3:03
E|--------------------------------------------------------||
B|--------------------------------------------------------||
G|--------------------------------------------------------||
D|--------------------------------------------------------||
A|--------------------------------------------------------||
E|-00000-00000-00000-00-00000-00000-00000-00--------------||
   ..... ..... ..... .. ..... ..... ..... ..

3:11
E|----------------------------------------------||
B|------12------12------------------------------||
G|------15------15------------------------------||
D|----------------------------------------------||x4
A|----------------------------------------------||
E|-0000----0000-----00000-00--------------------||
   ....    ....     ..... ..

one guitar does this the same time the other one does the part below
E|--------------------------------------------------------||
B|------12----12----12----12------------------------------||
G|---15----15----15----15---------------------------------||
D|--------------------------------------------------------||
A|--------------------------------------------------------||
E|--------------------------------------------------------||


E|--------------------------------------------------------||
B|--------------------------------------------------------||
G|--------------------------------------------------------||
D|--------------------------------------------------------||
A|--------------------------------------------------------||
E|--00000-00000-00-00000-00000-00000-00-------------------||
    ..... ..... .. ..... ..... ..... ..
Добавлено: 02.06.2013
Другие материалы по этой песне:
  • Аккорды и текст

Страница создана 02.06.2013
http://primanota.ru/from-autumn-to-ashes/all-i-taste-today-is-whats-her-name-chords.htm
Привет, Гость.
Предлагаем пройти революционный курс по гитаре.
Подарок от PrimaNota.Ru, забирай!