PrimaNota.ru - самый крупный в мире бесплатный архив песенных текстов, аккордов, табулатур и нот


From Autumn To Ashes - Abandon Your Friends - текст песни, таба, видео

Регистрация Запомнить меня
Войти через:  Facebook Google Twitter Vk Yandex Mail.ru

From Autumn To Ashes - Abandon Your Friends - текст песни, таба, видео

Печатать
Просмотров: 187
Уроки эстрадного вокала в Санкт-Петербурге
Tabbed by: Mario Oscar
Email: x17_89@hotmail.com
I didnt see any tab for this song so i took my acoustic guitar and did this,
i know its not perfect, but its so close.

Tuning: Standard

 Intro and verse:
e|------------------------0-----3-2-8-7--|
B|------3---------3---------3-1----------|
G|-------0-0-------0-0-------------------|
D|---2-4--4----2-4--4----2-2-2-2-2-2-----|
A|--2---------2---------3--3-3-3-3-3-7---|
E|-0---------0---------0-------------8---|

Hey this pre-corus is so hard to figure out i did the best i could this sounds
good(Hey cabrones el pre-coro esta bien dificil de sacar solo saque esto,aun asi
se oye bien):

e|------------------------0---0-----8-7-------------------|
B|-------3--------3---------3---1-0-----------------------|
G|-------0-0------0--0------------------------------------|
D|---2-4--4----2-4--4----2-2-2-2-2-2----------------------|
A|--2---------2---------3--3-3-3-3-3----------------------|
E|-0---------0---------0-------------8--------------------|


In the chorus
"we've abandoned our best friends" just play the intro
(en el coro solo token el intro)

 Guitars come in(Cuando entran las guitarras):
  Guitar 1 part :
e|-----------------------|
B|-----------------------|
G|--------5--------------|
D|-2------5-x32----------|
A|-2-x32--3--------------|
E|-0---------------------|

 Guitar 2 part:
e|--------------------------------------------------------------------------|
B|--------------------------------------------------------------------------|
G|-999-111111-12-12-12-14-14-14-12-12-12-11-11-everything-x2--9-------------|
D|-xxx--x-x-x--x--x--x--x--x--x--x--x--x--x--x----------------x-let ring----|
A|-777--9-9-9-10-10-10-12-12-12-10-10-10--9--9--todox2--------7-dejar sonar-|
E|-000--0-0-0--0--0--0--0--0--0--0--0--0--0--0----------------8-------------|

Outro:
e|------------------------0---2-3-5-8---7-----|
B|------3---------3---------3-----------------|
G|-------0-0-------0-0------------------------|
D|---2-4--4----2-4--4----2-2-2-2-2-2----------|
A|--2---------2---------3--3-3-3-3-3----------|
E|-0---------0---------0--------------8-0-----|

                          :(
Добавлено: 03.07.2013
Другие материалы по этой песне:
  • Аккорды и текст

Страница создана 15.07.2012
http://primanota.ru/from-autumn-to-ashes/abandon-your-friends-chords.htm
Привет, Гость.
Предлагаем пройти революционный курс по гитаре.
Подарок от PrimaNota.Ru, забирай!