PrimaNota.ru - самый крупный в мире бесплатный архив песенных текстов, аккордов, табулатур и нот


From Autumn To Ashes - A Goat In Sheep's Rosary - текст песни, таба, видео

Регистрация Запомнить меня
Войти через:  Facebook Google Twitter Vk Yandex Mail.ru

From Autumn To Ashes - A Goat In Sheep's Rosary - текст песни, таба, видео

Печатать
Просмотров: 90
Уроки эстрадного вокала в Санкт-Петербурге
Song: A Goat in Sheep's Rosary
Artist: From Autumn to Ashes
Album: Holding a Wolf by the Ears

Guitar 1: Rhythm
Guitar 2: Lead

Intro (0:00-0:11)
Guitar 2
e|--------------------------|
B|--------------------------|
G|-10---12-9--9/10---7------|
D|-10---12-9--9/10---7------|
A|--8---10-7--7/-8---5------|
E|--------------------------|

Verse 1 (0:12-0:35)
Guitar 1 (Repeat 2x) (All tremolo picking)
e|-------------------------------------------|
B|-------------------------------------------|
G|-------------------------------------------|
D|-------------------------------------------|
A|-------------------------------------------|
E|-0-------5-------3-------5----8--7--5--3--0|

Verse 1 (0:12-0:35)
Guitar 2 (Repeat  2x) (All tremolo picking)
e|---------------------------------|
B|-10--11--8---6-8-10-11-10-56-8-10|
G|---------------------------------|
D|---------------------------------|
A|---------------------------------|
E|---------------------------------|

Chorus 1 (0:36-1:00)
Guitar 1 (Repeat 4x) (All tremolo picking)
e|-------------------|
B|-------------------|
G|-------------------|
D|-------------------|
A|-------------------|
E|-0--8--3--2--7-----|

Chorus 1 (0:36-1:00)
Guitar 2 (Repeat 2x) (All tremolo picking)
e|----------------------------------------------|
B|-10-13-11-10-13--11-10-6---8-11-10--8--6-5-6-8|
G|----------------------------------------------|
D|----------------------------------------------|
A|----------------------------------------------|
E|----------------------------------------------|

Verse 2 (1:01-1:46)
Guitar 1 (Repeat 2x-comes in at 1:21) (All tremolo picking)
e|------------------------------|
B|------------------------------|
G|------------------------------|
D|------------------------------|
A|------------------------------|
E|-0----5----1--3--5--6--5--1--3|

Verse 2 (1:01-1:46)
Guitar 2 (Repeat 4x-First two plays normally, second two tremolo picking)
e|---------------------------------|
B|-10--11-8--10-6--11-10--10-10-6-8|
G|---------------------------------|
D|---------------------------------|
A|---------------------------------|
E|---------------------------------|

Chorus 2 (1:47-2:11)
Guitar 1 (Repeat 4x) (All tremolo picking)
e|-------------------|
B|-------------------|
G|-------------------|
D|-------------------|
A|-------------------|
E|-0--8--3--2--7-----|

Chorus 2 (1:47-2:11)
Guitar 2 (Repeat 2x) (All tremolo picking)
e|----------------------------------------------|
B|-10-13-11-10-13--11-10-6---8-11-10--8--6-5-6-8|
G|----------------------------------------------|
D|----------------------------------------------|
A|----------------------------------------------|
E|----------------------------------------------|

Interlude (2:12-2:14)
Guitar 1
e|--------------|
B|--------------|
G|--------------|
D|-3-333-3-33-3-|
A|-3-333-3-33-3-|
E|-3-333-3-33-3-|

Bridge (2:15-2:48)
Guitar 1 (Repeat 4x)                              End the 4th play with this.
e|------------------------------------------------|-----------------------|
B|------------------------------------------------|-----------------------|
G|------------------------------------------------|-----------------------|
D|-12-x-x-x-x-10-12-10-x--8-10-7-5-5-5-5-7-7-7-10-|-5-5-7-7-5-5-8-8-7-----|
A|-12-x-x-x-x-10-12-10-x--8-10-7-5-5-5-5-7-7-7-10-|-5-5-7-7-5-5-8-8-7-----|
E|-12-x-x-x-x-10-12-10-x--8-10-7-5-5-5-5-7-7-7-10-|-5-5-7-7-5-5-8-8-7-----|

Chorus 3 (2:49-3:17)
Guitar 1 (Repeat 4x) (All tremolo picking)
e|-------------------|
B|-------------------|
G|-------------------|
D|-------------------|
A|-------------------|
E|-0--8--3--2--7-----|

Chorus 3 (2:49-3:17)
Guitar 2 (Repeat 2x) (All tremolo picking)
e|----------------------------------------------|
B|-10-13-11-10-13--11-10-6---8-11-10--8--6-5-6-8|
G|----------------------------------------------|
D|----------------------------------------------|
A|----------------------------------------------|
E|----------------------------------------------|
Добавлено: 18.06.2013
Другие материалы по этой песне:
  • Аккорды и текст

Страница создана 20.03.2012
http://primanota.ru/from-autumn-to-ashes/a-goat-in-sheeps-rosary-chords.htm
Привет, Гость.
Предлагаем пройти революционный курс по гитаре.
Подарок от PrimaNota.Ru, забирай!