PrimaNota.ru - самый крупный в мире бесплатный архив песенных текстов, аккордов, табулатур и нот


From Ashes To New - Downfall - таба, видео

Регистрация Запомнить меня
Войти через:  Facebook Google Twitter Vk Yandex Mail.ru

From Ashes To New - Downfall - таба, видео

Печатать
Просмотров: 126
-------------------------------------------------------------------------------
                        Downfall - From Ashes To New
-------------------------------------------------------------------------------
E-mail: gageamaloney@outlook.com

Tuning: Drop A#


Intro/Post-Chorus:

C|---------------------------------------------------------------------------------------|
G|---------------------------------------------------------------------------------------|
D#|--------------------------------------------------------------------------------------|
A#|--------------------------------------------------------------------------------------|
F|--6-6--6--6-6--4-4-----3--1--3-3-3-3---3-3-6-5-3-4----3--1--3-3-3-3--3-3-6-5-3-6-------|
A#|-6-6--6--6-6--4-4-----3--1--3-3-3-3---3-3-6-5-3------3--1--3-3-3-3--3-3-6-5-3---------|

C|------------------------------------------------|
G|------------------------------------------------|
D#|-----------------------------------------------|
A#|-----------------------------------------------|
F|--3--1--3-3-3-3--3-3-6-5-3-4---6-6--6--6-6--4-4-|
A#|-3--1--3-3-3-3--3-3-6-5-3-----6-6--6--6-6--4-4-|


Verse:

Lead Guitar:
C|-------------------------------------------------------------------------------------------------------|
G|-------------------------------------------------------------------------------------------------------|
D#|-------------------------------13-13-12-12------------------------------------------------------------|
A#|-10-10-10-10-10-10-10-10-10-10-------------13-13-10-10-10-10-10-10-10-10-10-10-10-10-13-13-15-15------|
F|--------------------------------------------------------------------------------------------------13-13|
A#|------------------------------------------------------------------------------------------------------|
p.m .....................................................................................................

Rhythm Guitar:
C|--------------------------------------------------------------------------------|
G|--------------------------------------------------------------------------------|
D#|-------------------------------------------------------------------------------|
A#|-----------------------------------------6-6--6--6--6-6--6---------------------|
F|--3-3--3--3--3-3--3---1-1--1--1--1-1--1---4-4--4--4--4-4--4---1-1--1--1--1-1--1-|
A#|-3-3--3--3--3-3--3---1-1--1--1--1-1--1-----------------------1-1--1--1--1-1--1-|
p.m ..............................................................................


Pre-Chorus:

C |-----------------------------------------------------------------------------------------------------|
G |-----------------------------------------------------------------------------------------------------|
D#|-----------------------------------------------------------------------------------------------------|
A#|---------------------------------------------------------6--6-6-6-6--6--6--6-6-6-6-------------------|
F |-3--3-3-3-3--3--3--3-3-3-3---1--1-1-1-1--1--1--1-1-1-1---4--4-4-4-4--4--4--4-4-4-4---1--1-1-1-1--1-1-|
A#|-3--3-3-3-3--3--3--3-3-3-3---1--1-1-1-1--1--1--1-1-1-1-------------------------------1--1-1-1-1--1-1-|


Chorus:
Lead Guitar:
C|---------------------------------------------------------------------------------------------|
G|---------------------------------------------------------------------------------------------|
D#|----------12-13-12-----------12-13-12-----------12-13-12-15--13--12-------------------------|
A#|-10-10-8------------10-10-8------------10-10-8-----------------------13---------------------|
F|---------------------------------------------------------------------------------------------|
A#|--------------------------------------------------------------------------------------------|

Rhythm Guitar:
C|---------------------------------------------------------------------------|
G|---------------------------------------------------------------------------|
D#|--------------------------------------------------------------------------|
A#|-10-10-10-10-10-10--10--10--10-10-10-10-10---8-8-8-8-8-8--8--8--8-8-8-8-8-|
F|--8--8--8--8--8--8---8---8---8--8--8--8--8----6-6-6-6-6-6--6--6--6-6-6-6-6-|
A#|--------------------------------------------------------------------------|

C|---------------------------------------------------------------------------|
G|---------------------------------------------------------------------------|
D#|--------------------------------------------------------------------------|
A#|--------------------------------------------------------------------------|
F|--11-11-11-11-11-11--11--11--11-11-11-11-11---8-8-8-8-8-8--8--8--8-8-8-8-8-|
A#|-11-11-11-11-11-11--11--11--11-11-11-11-11---8-8-8-8-8-8--8--8--8-8-8-8-8-|


Bridge:

C|--------------------------------------------------------------------------------|
G|--------------------------------------------------------------------------------|
D#|-------------------------------------------------------------------------------|
A#|-------------------------------------------------------------6--6-6--6--6-6--6-|
F|--3--3-3--3--3-3--3---6--6-6--6--6-6--6---1--1-1--1--1-1--1---4--4-4--4--4-4--4-|
A#|-3--3-3--3--3-3--3---6--6-6--6--6-6--6---1--1-1--1--1-1--1---------------------|








************************************

| /   slide up
| \   slide down
| h   hammer-on
| p   pull-off
| ~   vibrato
| +   harmonic
| x   Mute note
| b   Bend
| pb  Pre-bend
| br  Bend release
| pbr Pre-bend release
| brb Bend release bend

************************************
Добавлено: 21.06.2016
Другие материалы по этой песне:
  • Аккорды и текст

Страница создана 21.06.2016
http://primanota.ru/from-ashes-to-new/downfall-chords.htm
Привет, Гость.
Предлагаем пройти революционный курс по гитаре.
Подарок от PrimaNota.Ru, забирай!