PrimaNota.ru - самый крупный в мире бесплатный архив песенных текстов, аккордов, табулатур и нот


From Aphony - Love By Way Of Hollywood - текст песни, таба, видео

Регистрация Запомнить меня
Войти через:  Facebook Google Twitter Vk Yandex Mail.ru

From Aphony - Love By Way Of Hollywood - текст песни, таба, видео

Печатать
Просмотров: 98
Love By Way Of Hollywood
From Aphony
From the album, "Builders, Wreckers, Lovers, and Takers"

(Drop C Tuning)

Intro

|---------------------------------------------------------------------------|
|---------------------------------------------------------------------------|
|---------------------------------------------------------------------------|
|-8-8-7-7-7-7-2-2-3-3-3-3-3-3-3-3-3-3-3-5-5-5-5-5-5-5-5---------------------|
|-5-5-5-5-5-5-5-5-5-5-5-5-1-1-1-1-1-1-1-3-3-3-3-3-3-3-3---------------------|
|---------------------------------------------------------------------------|


verse

|----------------------------------------------------------------------------|
|----------------------------------------------------------------------------|
|----------------------------------------------------------------------------|
|-0-0-0-0-0-0-0-0-0-0-0-0-3-3-3-3-3-3-3-3-5-5-5-5-5-5-5-5--------------------|
|-0-0-0-0-0-0-0-0-0-0-0-0-1-1-1-1-1-1-1-1-3-3-3-3-3-3-3-3--------------------|
|-0-0-0-0-0-0-0-0-0-0-0-0----------------------------------------------------|

Chorus

|---------------------------------------------------------------------------|
|---------------------------------------------------------------------------|
|---------------------------------------------9-9---------------------------|
|-0-0-5-3-2-5-3-2-5-3-8-8-7-7-7-7-7-7-8-8-----------------------------------|
|-0-0-5-3-2-5-3-2-5-3-8-8-7-7-7-7-7-7-7-7-----------------------------------|
|-0-0-5-3-2-5-3-2-5-3-8-8-7-7-7-7-7-7---------------------------------------|

Breakdown

|---------------------------------------------------------------------------|
|---------------------------------------------------------------------------|
F----------------------------------9-----9----------------------------------|
C-00-00--00000000-00-00-00-8-00-8-------------------------------------------|
G-00-00--00000000-00-00-00-7-00-7-------------------------------------------|
C-00-00--00000000-00-00-00---00---------------------------------------------|

Verse (repeats with lead over it)

|---------------------------------------------------------------------------|
|------6------5------6-----6/8----------------------------------------------|
|-3^5---3^5---3^5--3^5------------------------------------------------------|
|---------------------------------------------------------------------------|
|---------------------------------------------------------------------------|
|---------------------------------------------------------------------------|

Clean Bridge

|---12-------12--------12-----12-------12-------12-----12------12-----------|
|------13-------13---------------13-------13--------------13------13--------|
|---------14--------14-----14-------14-------14----14--------12------12-----|
|---------------------------------------------------------------------------|
|---------------------------------------------------------------------------|
|---------------------------------------------------------------------------|

|-12------12---------12---------12-------10--------10---------10------------|
|------------13---------13------------------10--------10--------------------|
|-----12--------12---------12-------12---------12--------12-------12--------|
|---------------------------------------------------------------------------|
|---------------------------------------------------------------------------|
|---------------------------------------------------------------------------|


|-10--------10--------10------8-------8-------8-----8-------8-------8-------|
|----10--------10---------------8-------8-------------8-------8-------------|
|-------12--------12------12------10------10----10------10------10----10----|
|---------------------------------------------------------------------------|
|---------------------------------------------------------------------------|
|---------------------------------------------------------------------------|

|--8-10-12-10-8-10-8-7-8-10-8-7--12-----------------------------------------|
|------------------------------------10--10---------------------------------|
|---------------------------------------------------------------------------|
|---------------------------------------------------------------------------|
|---------------------------------------------------------------------------|
|---------------------------------------------------------------------------|

Rythem Outro

|---------------------------------------------------------------------------|
|---------------------------------------------------------------------------|
|---------------------------------------------------------------------------|
|-7-7-7-7-7-7-7-7-5-5-5-5-5-5-5-5-3-3-3-3-3-3-3-3-5-5-5-5-5-5-5-5-----------|
|-7-7-7-7-7-7-7-7-5-5-5-5-5-5-5-5-3-3-3-3-3-3-3-3-5-5-5-5-5-5-5-5-----------|
|-7-7-7-7-7-7-7-7-5-5-5-5-5-5-5-5-3-3-3-3-3-3-3-3-5-5-5-5-5-5-5-5-----------|

Lead Outro

|----------------------------------------------------------------------------|
|----------------------------------------------------------------------------|
|----------------------------------------------------------------------------|
|-7-0-0-0-8-0-0-0-5-0-0-0-7-0-0-0-3-0-0-0-5-0-0-0-2-0-0-0-5-3-2~0------------|
|-------------------------------------------------------------------------0--|
|-------------------------------------------------------------------------0--|

Random HXC Ending

|---------------------------------------------------------------------------|
|---------------------------------------------------------------------------|
|-------------------------------------------------------------9-10----------|
|--------------7^8^7^0------------------------------------8--9--------------|
|-7^8^7^0--------------7^8^7^0------------------------7--8------------------|
|--------------------------------------7^8^7^0-000-000----------------------|
Добавлено: 23.03.2012
Другие материалы по этой песне:
  • Аккорды и текст

Страница создана 23.03.2012
http://primanota.ru/from-aphony/love-by-way-of-hollywood-chords.htm
Привет, Гость.
Предлагаем пройти революционный курс по гитаре.
Подарок от PrimaNota.Ru, забирай!