PrimaNota.ru - самый крупный в мире бесплатный архив песенных текстов, аккордов, табулатур и нот


From A Second Story Window - For Those Lost - бас-таба, видео

Регистрация Запомнить меня
Войти через:  Facebook Google Twitter Vk Yandex Mail.ru

From A Second Story Window - For Those Lost - бас-таба, видео

Печатать
Просмотров: 91
I'm guessing knowbody's ever heard of these guys or just doesn't feel
like tabbing there song's seeing that I'm the first one. These guys 
are awesome and this song is very easy!


Tuning: Standard

-------------------
Updated: 6/11/07
I forgot the intro.
-------------------

This is played at 0:00.
|----------------------------------------------------|
|----------------------------------------------------|
|----------------------------------------------------|
|-0~~~-----------------------------------------------|


The bass comes in at 0:53.
|----------------------------------------------------|
|----------------------------------------------------|
|----------------------------14-14-14-14-14-14-12-14-|
|-77777------------55555-55/-------------------------|

|----------------------------------------------------|
|----------------------------------------------------|
|----------------------------14-14-14-14-14-14-12-14-|
|-77777-777-777-77-55555-55/-------------------------|
You play this about 4 times then you play the riff below for the rest
of the song.

1:52
|----------------------------------------------------|
|----------------------------------------------------|
|----------------------------14-14-14-14-14-14-12-14-|
|-77777-777-777-77-55555-55/-------------------------|
Добавлено: 30.04.2012
Другие материалы по этой песне:

Страница создана 30.04.2012
http://primanota.ru/from-a-second-story-window/for-those-lost-chords.htm
Привет, Гость.
Предлагаем пройти революционный курс по гитаре.
Подарок от PrimaNota.Ru, забирай!