PrimaNota.ru - самый крупный в мире бесплатный архив песенных текстов, аккордов, табулатур и нот


Frodus - The Earth Isnt Humming - таба, видео

Регистрация Запомнить меня
Войти через:  Facebook Google Twitter Vk Yandex Mail.ru

Frodus - The Earth Isnt Humming - таба, видео

Печатать
Просмотров: 91
-------------------------------------------------------------------------------
                             The Earth Isn't Humming - Frodus
-------------------------------------------------------------------------------

Tabbed by: cjpm105

Tuning: Standard

Intro/ Verse
e|-------------------------------------------------|
B|--13---------------------------------------------|
G|--------------------------12----12--12-12-12-12--|
D|--------14----------------14----14--14-14-14-14--|
A|--------------12--15--12--12----12--12-12-12-12--|
E|-------------------------------------------------|

e|--------------------------------------------------|
B|--13----------------------------------------------|
G|--------------------------------12----12--12--12--|
D|--------14---------------12h14--14----14--14--14--|
A|--------------12--15p12---------------------------|
E|--------------------------------------------------|

e|-------------------------------------------------|
B|--13---------------------------------------------|
G|--------------------------12----12--12-12-12-12--|
D|--------14----------------14----14--14-14-14-14--|
A|--------------12--15--12--12----12--12-12-12-12--|
E|-------------------------------------------------|

e|--------------------------------------------------|
B|--13----------------------------------------------|
G|--------------------------------12----12--12--12--|
D|--------14---------------12h14--14----14--14--14--|
A|--------------12--15p12---------------------------|
E|--------------------------------------------------|

e|-------------------------------------------------|
B|--13---------------------------------------------|
G|--------------------------12----12--12-12-12-12--|
D|--------14----------------14----14--14-14-14-14--|
A|--------------12--15--12--12----12--12-12-12-12--|
E|-------------------------------------------------|

e|--------------------------------------------------|
B|--13----------------------------------------------|
G|--------------------------------12----12--12--12--|
D|--------14---------------12h14--14----14--14--14--|
A|--------------12--15p12---------------------------|
E|--------------------------------------------------|

Pre-Chorus
e|--15-------17br---------15--14----15-------17br---------15--14--|
B|-----14----------14------------------14----------14-------------|
G|--------14----------14------------------14----------14----------|
D|----------------------------------------------------------------|
A|----------------------------------------------------------------|
E|----------------------------------------------------------------|

e|--15-------17br---------15--14----15-------17br---------15--14--|
B|-----14----------14------------------14----------14-------------|
G|--------14----------14------------------14----------14----------|
D|----------------------------------------------------------------|
A|----------------------------------------------------------------|
E|----------------------------------------------------------------|

e|--15-------17br---------15--14----15-------17br---------15--14--|
B|-----14----------14------------------14----------14-------------|
G|--------14----------14------------------14----------14----------|
D|----------------------------------------------------------------|
A|----------------------------------------------------------------|
E|----------------------------------------------------------------|

e|--15-------17br---------15--14----15-------17br---------15--14--|
B|-----14----------14------------------14----------14-------------|
G|--------14----------14------------------14----------14----------|
D|----------------------------------------------------------------|
A|----------------------------------------------------------------|
E|----------------------------------------------------------------|

Chorus
e|--------------------------------------------------------------|
B|--------------------------------------------------------------|
G|--------------------------------------------------------------|
D|------------------------------5-----5-------------------------|
A|--7----7----7----7----5h7p5--------------8-----8-----5h8p5----|
E|----5----5----5----5-------5----5-----5----5-----5---------5--|

e|--------------------------------------------------------|
B|--------------------------------------------------------|
G|--------------------------------------------------------|
D|-------------------------------5----5----9----9----9----|
A|--8----8----8----8----5h8p5-----------------------------|
E|----5----5----5----5--------5----5----5----5----5----5--|

e|--------------------------------------------------------------|
B|--------------------------------------------------------------|
G|--------------------------------------------------------------|
D|------------------------------5-----5-------------------------|
A|--7----7----7----7----5h7p5--------------8-----8-----5h8p5----|
E|----5----5----5----5-------5----5-----5----5-----5---------5--|

e|--------------------------------------------------------|
B|--------------------------------------------------------|
G|--------------------------------------------------------|
D|-------------------------------5----5----9----9----9----|
A|--8----8----8----8----5h8p5-----------------------------|
E|----5----5----5----5--------5----5----5----5----5----5--|

e|--------------------------------------------------------------|
B|--------------------------------------------------------------|
G|--------------------------------------------------------------|
D|------------------------------5-----5-------------------------|
A|--7----7----7----7----5h7p5--------------8-----8-----5h8p5----|
E|----5----5----5----5-------5----5-----5----5-----5---------5--|

e|--------------------------------------------------------|
B|--------------------------------------------------------|
G|--------------------------------------------------------|
D|-------------------------------5----5----9----9----9----|
A|--8----8----8----8----5h8p5-----------------------------|
E|----5----5----5----5--------5----5----5----5----5----5--|

e|------------------------------------------------------------|
B|------------------------------------------------------------|
G|------------------------------------------------------------|
D|------------------------------------------------------------|
A|--7----7----7----7----5h7p5----5----5----5----5----5h7p5----|
E|----5----5----5----5--------5----5----5----5----5--------5--|

e|--------------------------------------------------------|
B|--------------------------------------------------------|
G|--------------------------------------------------------|
D|-------------------------------5----5----9----9----9----|
A|--8----8----8----8----5h8p5-----------------------------|
E|----5----5----5----5--------5----5----5----5----5----5--|

e|------------------------------------------------------------|
B|------------------------------------------------------------|
G|------------------------------------------------------------|
D|------------------------------------------------------------|
A|--7----7----7----7----5h7p5----5----5----5----5----5h7p5----|
E|----5----5----5----5--------5----5----5----5----5--------5--|

e|--------------------------------------------------------|
B|--------------------------------------------------------|
G|--------------------------------------------------------|
D|-------------------------------5----5----9----9----9----|
A|--8----8----8----8----5h8p5-----------------------------|
E|----5----5----5----5--------5----5----5----5----5----5--|

Breakdown
e|-----------------------------------------------------------------|
B|--8-------------------10--10--10--10--10--10--8------------------|
G|----9-----------------9---9---9---9---9---9-----9----------------|
D|------10--------------7---7---7---7---7---7-------10-------------|
A|---------10-10-12v~----------------------------------10-10-12v~--|
E|-----------------------------------------------------------------|

e|---------------------------------------------------------------------|
B|--10--10--10--10--10--10--8------------------10--10--10--10--10--10--|
G|--9---9---9---9---9---9-----9----------------9---9---9---9---9---9---|
D|--7---7---7---7---7---7-------10-------------7---7---7---7---7---7---|
A|---------------------------------10-10-12v~--------------------------|
E|---------------------------------------------------------------------|

e|---------------------------------------------------------------------|
B|--8------------------10--10--10--10-10-10--10--10--8-----------------|
G|----9----------------9---9---9---9--9--9---9---9-----9---------------|
D|------10-------------7---7---7---7--7--7---7---7-------10------------|
A|---------10-10-12v~---------------------------------------10-10-12v--|
E|---------------------------------------------------------------------|

e|-----------------------------------------------------------------------|
B|--8------------------10--10--10--10-10-10--10--10--8-------------------|
G|----9----------------9---9---9---9--9--9---9---9-----9-----------------|
D|------10-------------7---7---7---7--7--7---7---7-------10--------------|
A|---------10-10-12v~---------------------------------------10-10-12v~\--|
E|-----------------------------------------------------------------------|


e|-------------|
B|--x-x--------|
G|--x-x----9~--|
D|--x-x----7~--|
A|-------------|
E|-------------|

Verse
e|-------------------------------------------------|
B|--13---------------------------------------------|
G|--------------------------12----12--12-12-12-12--|
D|--------14----------------14----14--14-14-14-14--|
A|--------------12--15--12--12----12--12-12-12-12--|
E|-------------------------------------------------|

e|--------------------------------------------------|
B|--13----------------------------------------------|
G|--------------------------------12----12--12--12--|
D|--------14---------------12h14--14----14--14--14--|
A|--------------12--15p12---------------------------|
E|--------------------------------------------------|

e|-------------------------------------------------|
B|--13---------------------------------------------|
G|--------------------------12----12--12-12-12-12--|
D|--------14----------------14----14--14-14-14-14--|
A|--------------12--15--12--12----12--12-12-12-12--|
E|-------------------------------------------------|

e|--------------------------------------------------|
B|--13----------------------------------------------|
G|--------------------------------12----12--12--12--|
D|--------14---------------12h14--14----14--14--14--|
A|--------------12--15p12---------------------------|
E|--------------------------------------------------|

e|------------------------------------------------------------|
B|--13---------------------------13---------------------------|
G|------------------------------------------------------------|
D|--------14---------------------------14---------------------|
A|--------------12--15----15p12--------------12--15----15-15--|
E|------------------------------------------------------------|

e|-------------------------------------------------------------------|
B|--13------------------------------13-------------------------------|
G|-------------------------------------------------------------------|
D|--------14------------------------------14------------10h12p10-----|
A|--------------12--15--12----15-15-------------12--15-----------10--|
E|-------------------------------------------------------------------|

e|-----------------------------------------------------------|
B|--13--------------------------13---------------------------|
G|-----------------------------------------------------------|
D|--------14--------------------------14---------------------|
A|--------------12--15----15p12-------------12--15----15-15--|
E|-----------------------------------------------------------|

e|-------------------------------------------------------------------|
B|--13------------------------------13-------------------------------|
G|-------------------------------------------------------------------|
D|--------14------------------------------14------------10h12p10-----|
A|--------------12--15--12----15-15-------------12--15-----------10--|
E|-------------------------------------------------------------------|

Final Chorus
e|------------------------------------------------------------|
B|------------------------------------------------------------|
G|------------------------------------------------------------|
D|------------------------------------------------------------|
A|--7----7----7----7----5h7p5----5----5----5----5----5h7p5----|
E|----5----5----5----5--------5----5----5----5----5--------5--|

e|--------------------------------------------------------|
B|--------------------------------------------------------|
G|--------------------------------------------------------|
D|-------------------------------5----5----9----9----9----|
A|--8----8----8----8----5h8p5-----------------------------|
E|----5----5----5----5--------5----5----5----5----5----5--|

e|------------------------------------------------------------|
B|------------------------------------------------------------|
G|------------------------------------------------------------|
D|------------------------------------------------------------|
A|--7----7----7----7----5h7p5----5----5----5----5----5h7p5----|
E|----5----5----5----5--------5----5----5----5----5--------5--|

e|--------------------------------------------------------|
B|--------------------------------------------------------|
G|--------------------------------------------------------|
D|-------------------------------5----5----9----9----9----|
A|--8----8----8----8----5h8p5-----------------------------|
E|----5----5----5----5--------5----5----5----5----5----5--|

e|------------------------------------------------------------|
B|------------------------------------------------------------|
G|------------------------------------------------------------|
D|------------------------------------------------------------|
A|--7----7----7----7----5h7p5----5----5----5----5----5h7p5----|
E|----5----5----5----5--------5----5----5----5----5--------5--|

e|--------------------------------------------------------|
B|--------------------------------------------------------|
G|--------------------------------------------------------|
D|-------------------------------5----5----9----9----9----|
A|--8----8----8----8----5h8p5-----------------------------|
E|----5----5----5----5--------5----5----5----5----5----5--|

e|------------------------------------------------------------|
B|------------------------------------------------------------|
G|------------------------------------------------------------|
D|------------------------------------------------------------|
A|--7----7----7----7----5h7p5----5----5----5----5----5h7p5----|
E|----5----5----5----5--------5----5----5----5----5--------5--|

e|--------------------------------------------------------|
B|--------------------------------------------------------|
G|--------------------------------------------------------|
D|-------------------------------5----5----9----9----9----|
A|--8----8----8----8----5h8p5-----------------------------|
E|----5----5----5----5--------5----5----5----5----5----5--|

e|---------|
B|---------|
G|--9~~~~--|
D|--7~~~~--|
A|--7~~~~--|
E|--5~~~~--|

| /  slide up
| \  slide down
| h  hammer-on
| p  pull-off
| ~  sustain
| *  harmonic
| x  Mute note
| b  bend
| r  release
| v  vibrato
===============================================================================

Band site: www.frodus.com
Добавлено: 06.07.2012
Другие материалы по этой песне:

Страница создана 22.03.2012
http://primanota.ru/frodus/the-earth-isnt-humming-chords.htm
Привет, Гость.
Предлагаем пройти революционный курс по гитаре.
Подарок от PrimaNota.Ru, забирай!