PrimaNota.ru - самый крупный в мире бесплатный архив песенных текстов, аккордов, табулатур и нот


Frnkiero And The Cellabration - Stitches - бас-таба, видео

Регистрация Запомнить меня
Войти через:  Facebook Google Twitter Vk Yandex Mail.ru

Frnkiero And The Cellabration - Stitches - бас-таба, видео

Печатать
Просмотров: 227
intro:
G----------------------------------------|
D----------------------------------------|
A----------------------------------------|
E---5-5-5-5-5-5-5-3-9--------------------|

verse:
G---------------------------------|
D---------------------------------|
A---------------------------------|
E----5-0-3-5-5-0-3----------------|

pre-chorus:
G------------------------------------------------------|
D------------------------------------------------------|
A-------------------------1-1-1-1-1-1-1-1-1-1-1--------|
E--1-1-1-1-1-1-1-1-1-1-1-------------------------------|

G----------------------------------------------------------|
D----------------------------------------------------------|
A----------------------------------------------------------|
E--5-5-5-5-5-5-5-5-3-3-3-3-3-0-0-0-1-1-1-1-0-0-0-0-1-1-1---|

chorus:
G---------------------------------------------------------------------------------------|
D---------------------------------------------------------------------------------------|
A-5-5-5-5-5-5-5-5-5-----------------3-3-3-3-3-3-5-5-5-5-5-1-1-1-1/3---------------------|
E--------------------5-5-5-5-5-5-5----------------------------------5-5-5-5-5-5-5-5-5---|

ending:


G--------------------------------------------|------------------|
D--------------------------------------------|-----------------.|
A----------------1-1-1-1-1-1-----------------|-----------------.|
E-0-1-1-1-1-1-1--------------5-5-5-5-3-3-3-3-|0-0-0-0-0-1-1-1-1-|

"i am a setting sun"
G-------------------------------|
D-------------------------------|
A-------------------------------|
E-0-0-0-0-0-0-0-0-0-0-0-0-0-0-0-|

end
Добавлено: 13.09.2015
Другие материалы по этой песне:
  • Аккорды и текст

Страница создана 13.09.2015
http://primanota.ru/frnkiero-and-cellabration/stitches-chords.htm
Привет, Гость.
Предлагаем пройти революционный курс по гитаре.
Подарок от PrimaNota.Ru, забирай!