PrimaNota.ru - самый крупный в мире бесплатный архив песенных текстов, аккордов, табулатур и нот


Frnkiero And The Cellabration - Blood Infections - таба, видео

Регистрация Запомнить меня
Войти через:  Facebook Google Twitter Vk Yandex Mail.ru

Frnkiero And The Cellabration - Blood Infections - таба, видео

Печатать
Просмотров: 322
-------------------------------------------------------------------------------
             .blood infections. - frnkiero andthe cellabration
-------------------------------------------------------------------------------
Tabbed by: Jacque
E-mail: Imbatman1312

Tuning: Standard

Verse

No Guitar

Pre-Chorus

No Guitar

Chorus

Guitar 1 (Rhythm)

e|--------------------------------------------------------------------------------------|
B|--------------------------------------------------------------------------------------|
G|--------------------------------------------------------------------------------------|
D|--------------------------------------------------------------------------------------| X2 
A|-5--5--5-5-5--5-5--5-5-5--3-3-3-3-3-3--3-3-3---3-3-3-3-3-3--3-3-3-5--5--5-5-5--5-5-5--| 
E|-3--3--3-3-3--3-3--3-3-3--1-1-1-1-1-1--1-1-1-0h1-1-1-1-1-1--1-1-1-3--3--3-3-3--3-3-3--|

Guitar 2 (Lead)

e|----------------------------------------------------------------------------------------------|
B|-8--8--8-8-8--8--8--8-8-8--11-10---11-10-----------------10----10--8--10-11-11-11-10-11-10----|
G|--------------------------------10------10--10--10-10-10----10----------------------------12--|
D|----------------------------------------------------------------------------------------------| X2
A|----------------------------------------------------------------------------------------------|
E|----------------------------------------------------------------------------------------------|

Verse 2

Guitar 3 (Clean)

    "I wanna take your hand."     "Make you understand my side, and our kind"

e|---------------------------------------------------------------------------|
B|---------------------------------------------------------------------------|
G|-3-------------------------5-3-----------------------3---1---------2-------|
D|-5-------------------------5-5-----------------------5---3---------x--3----|
A|-5-------------------------5-5-----------------------5---3---------3--3----|
E|-3-------------------------3-3-----------------------3---1---------1--1----|

Pre-Chorus 2

Guitar 2 (Lead)

e|-------------------------------------------------------------------------------------------------------------|
B|-----------------------------------------------------------------------------11-11-11-11-11-13-13-13-13-13---|
G|-8--8-8-8-8-8-8-8-8-8--10-10-10-10-10-10-10-10-10-10-12-12-12-12-12-12-12-12---------------------------------|
D|-----------------------------------------------------------------------------8--8--8--8--8--10-10-10-10-10---|
A|-6--6-6-6-6-6-6-6-6-6--8--8--8--8--8--8--8--8--8--8--10-10-10-10-10-10-10-10---------------------------------|
E|-------------------------------------------------------------------------------------------------------------|

Chorus 2

Guitar 1 (Rhythm)

e|--------------------------------------------------------------------------------------|
B|--------------------------------------------------------------------------------------|
G|--------------------------------------------------------------------------------------|
D|--------------------------------------------------------------------------------------| X2 
A|-5--5--5-5-5--5-5--5-5-5--3-3-3-3-3-3--3-3-3---3-3-3-3-3-3--3-3-3-5--5--5-5-5--5-5-5--| 
E|-3--3--3-3-3--3-3--3-3-3--1-1-1-1-1-1--1-1-1-0h1-1-1-1-1-1--1-1-1-3--3--3-3-3--3-3-3--|

Guitar 2 (Lead)

e|----------------------------------------------------------------------------------------------|
B|-8--8--8-8-8--8--8--8-8-8--11-10---11-10-----------------10----10--8--10-11-11-11-10-11-10----|
G|--------------------------------10------10--10--10-10-10----10----------------------------12--|
D|----------------------------------------------------------------------------------------------| X2
A|----------------------------------------------------------------------------------------------|
E|----------------------------------------------------------------------------------------------|

Bridge

Guitar 1 (Rhythm)

"In the dark, in the dark no one hides"

e|-------------------------------------x-------|
B|-------------------------------------x-------|
G|-------------------------------------x-------|
D|-------------------------------------x-------| X2
A|-------------------------------------x5-555--|
E|-------------------------------------x3-333--|

e|-------------------------------------x--------------------|
B|-------------------------------------x--------------------|
G|-------------------------------------x--------------------|
D|-------------------------------------x------xxxx----------| 
A|-------------------------------------x5-555-xxxx----------|
E|-------------------------------------x3-333-xxxx-/10~~~---|

e|---------------------------------------------------|
B|---------------------------------------------------|
G|---------------------------------------------------|
D|---------------------------------------------------|
A|-5--5-5-5-/-12--12-12-12--5--5-5-5-/-13--12-12-12--|
E|-3--3-3-3-/-10--10-10-10--3--3-3-3-/-11--10-10-10--|

e|-----------------------------------------------------|
B|-----------------------------------------------------|
G|-----------------------------------------------------|
D|-----------------------------------------------------|
A|-5--5-5-5-/---------------8-8--10-10-10-7------------|
E|-3--3-3-3-/-10--10-10-10--6-6--8--8--8--5-----6-6-5--|

Chorus 3

Guitar 1 (Rhythm)

e|--------------------------------------------------------------------------------------|
B|--------------------------------------------------------------------------------------|
G|--------------------------------------------------------------------------------------|
D|--------------------------------------------------------------------------------------| X4
A|-5--5--5-5-5--5-5--5-5-5--3-3-3-3-3-3--3-3-3---3-3-3-3-3-3--3-3-3-5--5--5-5-5--5-5-5--| 
E|-3--3--3-3-3--3-3--3-3-3--1-1-1-1-1-1--1-1-1-0h1-1-1-1-1-1--1-1-1-3--3--3-3-3--3-3-3--|

Guitar 2 (Lead)

e|----------------------------------------------------------------------------------------------|
B|-8--8--8-8-8--8--8--8-8-8--11-10---11-10-----------------10----10--8--10-11-11-11-10-11-10----|
G|--------------------------------10------10--10--10-10-10----10----------------------------12--|
D|----------------------------------------------------------------------------------------------| X4
A|----------------------------------------------------------------------------------------------|
E|----------------------------------------------------------------------------------------------|


************************************

| /   slide up
| \   slide down
| h   hammer-on
| p   pull-off
| ~   vibrato
| +   harmonic
| x   Mute note
| b   Bend
| pb  Pre-bend
| br  Bend release
| pbr Pre-bend release
| brb Bend release bend

************************************
Добавлено: 13.09.2015
Другие материалы по этой песне:
  • Аккорды и текст

Страница создана 13.09.2015
http://primanota.ru/frnkiero-and-cellabration/blood-infections-chords.htm
Привет, Гость.
Предлагаем пройти революционный курс по гитаре.
Подарок от PrimaNota.Ru, забирай!