PrimaNota.ru - самый крупный в мире бесплатный архив песенных текстов, аккордов, табулатур и нот


Frio - Nakapagtataka - таба, видео

Регистрация Запомнить меня
Войти через:  Facebook Google Twitter Vk Yandex Mail.ru

Frio - Nakapagtataka - таба, видео

Печатать
Просмотров: 68
-------------------------------------------------------------------------------
                                                      Nakapagtataka - Frio
-------------------------------------------------------------------------------
Tabbed by:coldheart06
E-mail:enricopili06@gmail.com
Facebook:http://www.facebook.com/coldheart06
Tuning:

Intro1:x4
e|--------------------------------|
B|--------------------------------|
G|-------------------8------------|
D|-----10--8-10-8-10---10-8-------|
A|--------------------------------|
E|--------------------------------|

Intro2:x3                          Then
e|---------------------11---------||-----------------11------------------------|
B|-----13--11-13-11-13----13-11---||-13--11-13-11-13----13---------------------|
G|--------------------------------||-----------------------15-13~--------------|
D|--------------------------------||-------------------------------------------|
A|--------------------------------||-------------------------------------------|
E|--------------------------------||-------------------------------------------|
Verse
Chorus:C-Bb-C-b-C-Bb----Ab-----Bb-----Then
               x1
e|------------------11-----------|    |-----------------11---------------|
B|--13--11-13-11-13----13-11-----|    |-13--11-13-11-13----13------------|
G|-------------------------------|Then|-----------------------15-13~-----|
D|-------------------------------|    |----------------------------------|
A|-------------------------------|    |----------------------------------|
E|-------------------------------|    |----------------------------------|
Verse
Repeat Chorus

Solo:
e|------------------|-13p11------------11h13p11--------------|
B|------------------|-------13p11---13----------13p11--------|
G|-----13--15---17--|-------------13------------------11- ---|
D|-/13---13--13-----|----------------------------------------|
A|------------------|----------------------------------------|
E|------------------|----------------------------------------|
                                                                Repeat 7 times
e|-------------------------------|------------16 16/18\16-|---|-----------------|    |---|
B|---------------------16b18pr16-|--------16--------------|---|13h16p15---------|    |---|
G|------------------13-----------|----13------------------|-13|--------13-------|then|13~|
D|--13---------13-15-------------|/13---13--13------------|---|-----------------|    |---|
A|--- -13/15---------------------|------------------------|---|-----------------|    |---|
E|-------------------------------|------------------------|---|-----------------|    |---|

Bridge(No Guitar)
Repeat chorusx2
Then
Outro:x2
e|--------------------------------|
B|--------------------------------|
G|-------------------8------------|
D|-----10--8-10-8-10---10-8-------|
A|--------------------------------|
E|--------------------------------|
               x1
e|-------------------11-----------|    |-------  ----------11-------------|
B|---13--11-13-11-13----13-11-----|    |---13--11-13-11-13----13----------|
G|--------------------------------|Then|-------------------------15-13~---|
D|--------------------------------|    |----------------------------------|
A|--------------------------------|    |----------------------------------|
E|--------------------------------|    |----------------------------------|

End
I Tab this all by ear so if theres any
corrections or suggestions please email me @enricopili06@gmail.com
************************************

| /   slide up
| \   slide down
| h   hammer-on
| p   pull-off
| ~   vibrato
| +   harmonic
| x   Mute note
| b   Bend
| pb  Pre-bend
| br  Bend release
| pbr Pre-bend release
| brb Bend release bend

************************************
Добавлено: 04.06.2013
Другие материалы по этой песне:
  • Аккорды и текст

Страница создана 04.06.2013
http://primanota.ru/frio/nakapagtataka-chords.htm
Привет, Гость.
Предлагаем пройти революционный курс по гитаре.
Подарок от PrimaNota.Ru, забирай!