PrimaNota.ru - самый крупный в мире бесплатный архив песенных текстов, аккордов, табулатур и нот


Frijid Pink - House Of The Rising Sun - таба, бас-таба, видео

Регистрация Запомнить меня
Войти через:  Facebook Google Twitter Vk Yandex Mail.ru

Frijid Pink - House Of The Rising Sun - таба, бас-таба, видео

Печатать
Просмотров: 190
Авторы музыки: [traditional]
Авторы текста: [traditional]
                   House of The Rising Sun - Frijid Pink 

Tabbed by:Soccerguy
Email:colinpowell111@hotmail.com

Tuning: EADGBe  
Intro
e|----------------------------------------------------------------|
B|-------------------3h4h5-3h4h5p4---5h6h7-5h6h7p5----------------|
G|---4h5h6-4h5h6p4-5---------------7------------------------------|
D|-7---------------5---------------7----------------3-xx-x-x------|
A|-7---------------3---------------5----------------3-xx-x-x------|
E|-5------------------------------------------------1-xx-x-x------|
Solo 1
e|----------------------------------------------------------------------|
B|----------------------------------------------------------------------|
G|----------------------------------------------------7b7b7b7b----------|
D|-------------------/7-5-7-5h7p5-/767-5-7~-5h7p5-/7-5---------5-7------|
A|--------3-5b-5p3-3----------------------------------------------------|
E|-3-5-3h5--------5-----------------------------------------------------|

e|--------------------------------------------------------|
B|--------------------------------------------------------|
G|---------------5-7b-5---------7-5-5---------------------|
D|--7-5-7-5h7p5h7------7-7~-/7-5---7----------------------|
A|--------------------------------------------------------|
E|--------------------------------------------------------|

Verse (With wah wah, and distortion)
e|-0--0--2--1-|-0-0-0-|-0-0-0-0---------------------------|
B|-1--1--3--1-|-1-1-0-|-1-0-1-0---------------------------|
G|-2--0--2--2-|-2-0-1-|-2-1-2-1---------------------------|
D|-2--2--0--3-|-2-2-2-|-2-2-2-2---------------------------|
A|-0--3-------|-0-3-2-|-0-2-0-2---------------------------|
E|------------|-----0-|---0---0---------------------------|
Solo 2
e|-------------------------------------------------------------------|
B|-------------------------------------------------------------------|
G|-----------------/14-12h14p12----------14-12-14-12-14p12h14*-------|
D|-----------------------------/14-14-14~----------------------------|
A|-------3b-5b-5\3---------------------------------------------------|
E|-5~-5p3------------------------------------------------------------|

e|------------------------------------------------------------------|
B|------14b--13-----------------------------------------------------|
G|-12-14---14--------------------------------------------------7b---|
D|-------------x14b-----------------------10-12-13-14--10-7-10------|
A|------------------12h14-12-14-/14-12-14---------------------7-----|
E|---------------------------------------------------12-------------|
Solo 3
e|-------------------------------------------------------------------|
B|-------------------------------------------------------------------|
G|---------12-14-12h14p12--------------7b-7b-7b----------------------|
D|-10---12b---------------/12------7-7---7--7------------------------|
A|---12----------------------------7-7----------------3b-5b----------|
E|---------------------------13-12-5-5----------5-3535---------------|

Order: Intro Solo1 Verse Solo2 Verse Solo3 


| /  slide up
| \  slide down
| h  hammer-on
| p  pull-off
| ~  vibrato
| +  harmonic
| x  Mute note
| *  Play a lot
http://en.wikipedia.org/wiki/Frijid_Pink
Добавлено: 29.04.2012
Другие материалы по этой песне:

Страница создана 29.04.2012
http://primanota.ru/frijid-pink/house-of-the-rising-sun-chords.htm
Привет, Гость.
Предлагаем пройти революционный курс по гитаре.
Подарок от PrimaNota.Ru, забирай!