PrimaNota.ru - самый крупный в мире бесплатный архив песенных текстов, аккордов, табулатур и нот


The Frights - I Feel It Too - таба, видео

Регистрация Запомнить меня
Войти через:  Facebook Google Twitter Vk Yandex Mail.ru

The Frights - I Feel It Too - таба, видео

Печатать
Просмотров: 61
-------------------------------------------------------------------------------
                          I FEEL IT TOO - THE FRIGHTS
-------------------------------------------------------------------------------
Tabbed by: mosquitoo
E-mail: gregwwolff@gmail.com

Tuning: EADGBE (Standard)

intro
e|---------------------------------------------------------------------55-44-33-22--|
B|----------------------------------------------------------------------------------|
G|----------------------------------------------------------------------------------|
D|----------------------------------------------------------------------------------|
A|----------------------------------------------------------------------------------|
E|-0--2--0--5--------0--2--0--5--------0--2--0--5--------0--2--0--5-----------------|

verse

STUM PATTERN
S|-D---D-U--U-D-U--D--D-U--U-D-U--D--D-U--U-D-U--D--U--D--U---D--U--D--U-----|
e|-2/5-5-5--5-5-5--2--2-2--2-2-2--5--5-5--5-5-5--10-10-10-10--12-12-12-12----|
B|-2/5-5-5--5-5-5--2--2-2--2-2-2--5--5-5--5-5-5--10-10-10-10--12-12-12-12----|
G|-3/6-6-6--6-6-6--3--3-3--3-3-3--6--6-6--6-6-6--11-11-11-11--13-13-13-13----| (x4)
D|-4/7-7-7--7-7-7--4--4-4--4-4-4--7--7-7--7-7-7--12-12-12-12--14-14-14-14----|
A|-4/7-7-7--7-7-7--4--4-4--4-4-4--7--7-7--7-7-7--12-12-12-12--14-14-14-14----|
E|-2/5-5-5--5-5-5--2--2-2--2-2-2--5--5-5--5-5-5--10-10-10-10--12-12-12-12----|

e|---------------------------------------------------------------------------|
B|---------------------------------------------------------------------------|
G|---------------------------------------------------------------------------|
D|---------------------------------------------------------------------------| (x2)
A|---------------------------------------------------------------------------|
E|-5~--0--2--0--5--------0--2--0--5--------0--2--0--5--------0--2--0--5------|

STUM PATTERN
S|-D---D-U--U-D-U--D--D-U--U-D-U--D--D-U--U-D-U--D--U--D--U---D--U--D--U-----|
e|-2/5-5-5--5-5-5--2--2-2--2-2-2--5--5-5--5-5-5--10-10-10-10--12-12-12-12----|
B|-2/5-5-5--5-5-5--2--2-2--2-2-2--5--5-5--5-5-5--10-10-10-10--12-12-12-12----|
G|-3/6-6-6--6-6-6--3--3-3--3-3-3--6--6-6--6-6-6--11-11-11-11--13-13-13-13----| (x4)
D|-4/7-7-7--7-7-7--4--4-4--4-4-4--7--7-7--7-7-7--12-12-12-12--14-14-14-14----|
A|-4/7-7-7--7-7-7--4--4-4--4-4-4--7--7-7--7-7-7--12-12-12-12--14-14-14-14----|
E|-2/5-5-5--5-5-5--2--2-2--2-2-2--5--5-5--5-5-5--10-10-10-10--12-12-12-12----|

e|---------------------------------------------------------------------------|
B|---------------------------------------------------------------------------|
G|---------------------------------------------------------------------------|
D|---------------------------------------------------------------------------| (x2)
A|---------------------------------------------------------------------------|
E|-5~--0--2--0--5--------0--2--0--5--------0--2--0--5--------0--2--0--5------|


the part where he's like "we can talk for hours on end" i think is something like this
e|--------5-2--|
B|--------5-2--|
G|--------6-3--| (x4)
D|--------7-4--|
A|--------7-4--|
E|--0-2-0-5-2--|


************************************

| /   slide up
| \   slide down
| h   hammer-on
| p   pull-off
| ~   vibrato
| +   harmonic
| x   Mute note
| b   Bend
| pb  Pre-bend
| br  Bend release
| pbr Pre-bend release
| brb Bend release bend

************************************
Добавлено: 22.12.2015
Вам также может быть интересно:
Другие материалы по этой песне:
  • Аккорды и текст

Страница создана 22.12.2015
http://primanota.ru/frights/i-feel-it-too-chords.htm
Привет, Гость.
Предлагаем пройти революционный курс по гитаре.
Подарок от PrimaNota.Ru, забирай!