PrimaNota.ru - самый крупный в мире бесплатный архив песенных текстов, аккордов, табулатур и нот


Frightmare - Cropsy - таба, видео

Регистрация Запомнить меня
Войти через:  Facebook Google Twitter Vk Yandex Mail.ru

Frightmare - Cropsy - таба, видео

Печатать
Просмотров: 93
 http://www.myspace.com/frightmareofficial
http://www.slashermetal.com/    


Band: Frightmare
Album: Midnight Murder Mania
Song: Cropsy

Copyright (c) Razorback Records, 2003

Code:
. - palm mute           / - slide up to
\ - slide down to       x – Staccato
h - hammer on           p - pull off
, - slight palm mute    () - ghost note, sustained note
" - tremolo note        <> - Trill
L – left channel only   R – right channel only
* - see comment

Suffixes for bend
f - full bend       h - half bend
q - quarter bend    t - tap bend
^ - Hold bend       r - release bend
~ - vibrato bend

Suffixes for harmonic
ph - pinched harmonic   n – natural/artificial harmonic

Tuning B E A D F# B

Riff 1a (0:34) play twice
|------------------------------------------------|
|------------------------------------------------|
|------------------------------------------------|
|----5"-4"-------5"-4"-7"----5"-4"---------------|
|-7"-------5"-7"----------7"----------2"---------|
|----------------------------------0"----4"-3"---|


Riff 1b (0:43) play twice
|------------------------------------------------|
|------------------------------------------------|
|------------------------------------------------|
|----5"-4"-------5"-4"-7"----5"-4"---------------| gtr 1
|-7"-------5"-7"----------7"----------2"---------|
|----------------------------------0"----4"-3"---|

|----7"-6"-------7"-6"-9"----7"-6"---------------|
|-8"-------7"-8"----------8"-------7"------------|
|------------------------------------------------|
|------------------------------------------------| gtr 2
|-------------------------------------2"---------|
|----------------------------------------4"-3"---|


Fill 1 (0:54)
I
|---------------------------------------------|
|---------------------------------------------|
|---------------------------------------------|
|-----5/6---------5/6---------5/6-------------|
|-----3/4-3/4-----3/4-3/4-----3/4-3/4---------|
|-0"------1/2-0"------1/2-0"------1/2-0"--4"--|
  .           .           .           .

II
|-------------------------------------------------|
|-------------------------------------------------|
|-------------------------------------------------|
|-----5/6---------5/6---------5/6-----5-----------|
|-----3/4-3/4-----3/4-3/4-----3/4-3/4-3--3--6--2--|
|-0"------1/2-0"------1/2-0"------1/2----1--4--0--|
  .           .           .

Riff 2 (1:03) play twice
I
|---------------------------------------------|
|---------------------------------------------|
|---------5/6---------5/6---------5/6---------|
|-----5/6-3/4-----5/6-3/4-----5/6-3/4---------|
|-----3/4---------3/4---------3/4-------------|
|-0"----------0"----------0"----------0"--4"--|
  .           .           .           .

II
|-------------------------------------------------|
|-------------------------------------------------|
|---------5/6---------5/6---------5/6-------------|
|-----5/6-3/4-----5/6-3/4-----5/6-3/4-5-----------|
|-----3/4---------3/4---------3/4-----3--3--6--2--|
|-0"----------0"----------0"-------------1--4--0--|
  .           .           .           


Riff 3 (1:21)
I, III
|-------------------------------------------------------|
|-------------------------------------------------------|
|-------------------------------------------------------|
|------------4-------------3-------------4---------3-3--|
|-2-2--2-5/6-2--2-2--2-5/6-1--2-2--2-5/6-2--4-4--4-1-1--|
|-0-0--0-3/4----0-0--0-3/4----0-0--0-3/4----2-2--2------|

II
|-------------------------------------------------------|
|-------------------------------------------------------|
|-------------------------------------------------------|
|------------4-------------3-------------4--------------|
|-2-2--2-5/6-2--2-2--2-5/6-1--2-2--2-5/6-2--4-4--4-6-6--|
|-0-0--0-3/4----0-0--0-3/4----0-0--0-3/4----2-2--2-4-4--|

IV
|--------------------------------------------------------|
|--------------------------------------------------------|
|--------------------------------------------------------|
|------------4-------------3-------------4---------------|
|-2-2--2-5/6-2--2-2--2-5/6-1--2-2--2-5/6-2--4-4-4-6-6-6--|
|-0-0--0-3/4----0-0--0-3/4----0-0--0-3/4----2-2-2-4-4-4--|
                                            . . . . . .


Riff 4 (1:39) the tremolo notes aren't accurately spaced but it's
the correct pitch at least.
I, II
|-----------------------------------------------|
|-----------------------------------------------|
|-----------------------------------------------|
|-------------------------------------4----4----|
|-------------------------------------2-6--2-3--|
|-0"-4"-0"-4"-0"-4"-0"-4"-0"-4"-0"-4"---4----1--|

II, IV
|-----------------------------------------------|
|-----------------------------------------------|
|-----------------------------------------------|
|-------------------------------------4----4-8--|
|-------------------------------------2-6--2-6--|
|-0"-4"-0"-4"-0"-4"-0"-4"-0"-4"-0"-4"---4-------|


Riff 5 (1:57)
I, III
|--------------------------------------------------------|
|--------------------------------------------------------|
|--------------------------------------------------------|
|------------4-------------3-------------4---------------|
|-------4----2--------4----1--------4----2---------2-3---|
|-000-0-2--0----000-0-2--0----000-0-2--0---2-222-2-----4-|
  ... .    .    ... .    .    ... .    .   . ... . .

II, IV
|----------------------------------------------------------|
|----------------------------------------------------------|
|----------------------------------------------------------|
|------------4-------------3-------------4-----------------|
|-------4----2--------4----1--------4----2-2-2-2-2-2-2-2-2-|
|-000-0-2--0----000-0-2--0----000-0-2--0---0-0-0-0-0-0-0-0-|
  ... .    .    ... .    .    ... .    .   . . . . . . . .


Riff 6 (2:15)
I, III
|---------------------------------------------------------------------|
|---------------------------------------------------------------------|
|---------------------------------------------------------------------|
|-------------------------------------------------3-3-3-3-3-3-----3-3-|
|-4/6-2-2--2-4/6-2-2-2-2-2-----2-2-4/6-2-2--2-4/6-1-1-1-1-1-1-111-1-1-|
|-2/4-0-0--0-2/4-0-0-0-0-0-000-0-0-2/4-0-0--0-2/4---------------------|
           .       . . . . ... . .          .       . . . . . ... . .

II, IV
|---------------------------------------------------------------------|
|---------------------------------------------------------------------|
|---------------------------------------------------------------------|
|---------------------------------------------------------------------|
|-4/6-2-2--2-4/6-2-2-2-2-2-----2-2-4/6-2-2--2-4/6-4-4-4-4-4-4-----4-4-|
|-2/4-0-0--0-2/4-0-0-0-0-0-000-0-0-2/4-0-0--0-2/4-2-2-2-2-2-2-222-2-2-|
           .       . . . . ... . .          .       . . . . . ... . .

Solo begins (2:34)
Riff 5 x 1 (2:34)
Riff 1 x 1 (2:53)
Riff 2 x 1 (3:11)
Riff 3 x 1 (3:28)

End
|----|
|----|
|----|
|----|
|-2--|
|-0--|

Добавлено: 28.04.2012
Другие материалы по этой песне:
  • Аккорды и текст

Страница создана 28.04.2012
http://primanota.ru/frightmare/cropsy-chords.htm
Привет, Гость.
Предлагаем пройти революционный курс по гитаре.
Подарок от PrimaNota.Ru, забирай!