PrimaNota.ru - самый крупный в мире бесплатный архив песенных текстов, аккордов, табулатур и нот


Frightened Rabbit - Be Less Rude - аккорды и текст, видео

Регистрация Запомнить меня
Войти через:  Facebook Google Twitter Vk Yandex Mail.ru

Frightened Rabbit - Be Less Rude - аккорды и текст, видео

Печатать
Просмотров: 90
Авторы: Frightened Rabbit

Be Less Rude
Frightened Rabbit
----------------------------------------------------------------
Be Less Rude - Frightened Rabbit - Sing The Greys
-----------------------------------------------------------------
tabbed by isaac davie

This is my first tab so go easy
email me if its wrong isaacdavie@hotmail.com



Tuning:Standard (EADGBe)

 

 C Major   A Minor    F Major    C+ (play C and add this)      G
e|---0---| |---0---|  |---1---|  |---0---0----0--0----------|  |---1---|
B|---1---| |---1---|  |---1---|  |---1-----3--------3--1----|  |---1---|
G|---0---| |---2---|  |---2---|  |---0----------------------|  |---0---|
D|---2---| |---2---|  |---3---|  |---2----------------------|  |---0---|
A|---3---| |---0---|  |---0---|  |---3----------------(3)---|  |---2---|
E|-------| |---0---|  |---0---|  |--------------------------|  |---3---|




Intro:C+ x4
 
Verse 1

C
Oh this is what we need
  Am F            C+
A line in the sand
C                       
I would cross to here
          Am  F         C+
Before the tide comes in



Chorus 1

   G
And you should be less rude
          F                            C+
You don't know what it might do for you
  G
I'd be less rude to you
    F                     C+
We might just get along, too



Verse 2

C
You sit on your high horse
                 Am    F           C+
And you spout your high horse shite
C
I'm afraid you've been misled
    Am    F                      C+
Your high horse is in fact a pony



Chorus 2

   G
Oh you should be less rude
          F                            C+
You don't know what it might do for you
  G
I'd be less rude to you
   F                     C+
We might just get along too




Bridge Part 1

C,C,Am,F,C,C...


 (2:13)
e|------------------------------------------------------------|
B|---6-6--------------6-6------6-6----------------------------|
G|-------9-9------9-9--------------9-9------------------------|
D|------------------------------------------------------------|
A|------------------------------------------------------------|
E|------------------------------------------------------------|



Bridge Part 2

C                                              Play on C+ after back, back, back
I'll take that back now take that back         e|-----------------------|
          Am            F            C+        B|---6-6-----------------|
You should take that back, back, back          G|-------9-9-------------|
                                               D|-----------------------|
                                               A|-----------------------|
                                               E|-----------------------|



Final Chorus

   G
Oh you should be less rude
          F                            C+
You don't know what it might do for you
  G
I'd be less rude to you
   F                     
We might just get along too.    



End on CC











Frabbit FTW! ;D
Добавлено: 08.06.2012
Другие материалы по этой песне:
  • Аккорды и текст

Страница создана 08.06.2012
http://primanota.ru/frightened-rabbit/be-less-rude-chords.htm
Привет, Гость.
Предлагаем пройти революционный курс по гитаре.
Подарок от PrimaNota.Ru, забирай!