PrimaNota.ru - самый крупный в мире бесплатный архив песенных текстов, аккордов, табулатур и нот


Friendly Fires - Running Away - бас-таба, видео

Регистрация Запомнить меня
Войти через:  Facebook Google Twitter Vk Yandex Mail.ru

Friendly Fires - Running Away - бас-таба, видео

Печатать
Просмотров: 117
Авторы: Jack Savidge, Edward Gibson, Ed MacFarlane

I dont mind taking requests for bass tabs and will try my best to get 
them accurate, especially if the song is good and worth doing!
Just leave a message on my profile wall.

-----------------------------------------------------------------------------
                       Running Away - Friendly Fires
-----------------------------------------------------------------------------

Tabbed By : Callum Urquhart

Tuning: Standard

Intro/Verse X 4      Bass comes in around 0:09

G|--------------------------------------------------7-7-------10-10-9-------|
D|--5//7-------7-7----------------------------------------------------10----|
A|-----------------------5//7-5//7---------X-X-3//5------5//8---------------|
E|------5---5-------5----------------5---5----------------------------------|


Chorus X 2

G|----7-7------7-7------7-7-------------------------------------------------|
D|-------------------------------2-2------3-3------3-3------5-5------5-5----|
A|--5-----5--5-----5--5-----5-----------------------------------------------|
E|-----------------------------0-----0--1-----1--1-----1--3-----3--3-----3--|


Verse X 2


Fill

G|------------------------------------------|
D|--7>---5h7--------------------------------|
A|-----------------------7>---8>------------|
E|-----------5>------8>---------------------|


Chorus X 2

Fill X 2

Chorus X 2

PAUSE

Chorus X 2

Thats it! Pretty easy and fun to play.

| /  slide up
| \  slide down
| h  hammer-on
| p  pull-off
| >  hold note
| x  mute string
=============================================================================
Добавлено: 30.06.2012
Другие материалы по этой песне:
  • Аккорды и текст

Страница создана 30.06.2012
http://primanota.ru/friendly-fires/running-away-chords.htm
Привет, Гость.
Предлагаем пройти революционный курс по гитаре.
Подарок от PrimaNota.Ru, забирай!