PrimaNota.ru - самый крупный в мире бесплатный архив песенных текстов, аккордов, табулатур и нот


Friendly Fires - Relationships - текст песни, бас-таба, видео

Регистрация Запомнить меня
Войти через:  Facebook Google Twitter Vk Yandex Mail.ru

Friendly Fires - Relationships - текст песни, бас-таба, видео

Печатать
Просмотров: 111
Авторы музыки: Jack Savidge, Edward Gibson, Ed MacFarlane
Авторы текста: Jack Savidge, Edward Gibson, Ed MacFarlane
Song: Relationships
Artist: Friendly Fires
Album: Friendly Fires (Deluxe Version)
Tuning: EADG (Standard)
Tabbed By: 1ManRockBand (a.k.a. /|\)


Intro: Drums tap in beat with hi-hat (no bass)


Verse 1:
           4 beat rest
G|---------| - - - - |
D|---------| - - - - |
A|---------| - - - - | 3x
E|02h33-2h3| - - - - |

G|-------------------------------------------------|
D|-------------------5-----------------------------|
A|-------------------------------------------------|
E|02h33-2h3-3/15---\3-3\110h1----3/887h8--3/88p7\--|


Verse 2:
G|------| - - - - |---------| - - - - |--------| - - - - |
D|------| - - - - |---------| - - - - |--------| - - - - |
A|------| - - - - |---------| - - - - |--------| - - - - |
E|33-2h3| - - - - |02h33-2h3| - - - - |1/33-2h3| - - - - |

G|----------------------------------------------------------------------|
D|-------------------5-4------------------------------------------------|
A|----------------------------------------------------------------------|
E|02h33-2h3-3/15---\3-2-\110h1----3/887h8--3/88p7\-110h1~-------0110h1-1|


Pre-Chorus: 4 beat rest (hi-hat taps ¼ notes)


Chorus: 
G|------------------|     - - - 
D|------------------|            |
A|------------------|            |
E|332h3-0h2332h3-3\1|            |
                                 |
G|--------------------|          |
D|--------------------|          | 
A|--------------------|          |
E|332h3-0h2332h3-3/15\|          |
                                 | 2x
G|-----| - - - |-------|         |
D|-----| - - - |-------|         |
A|-----| - - - |-------|         |
E|110h1| - - - |0-110h1|         | 
                                 |
G|------|                        |
D|------|                        |
A|------|                        |
E|110110|                 - - -

G|--------|
D|--------|
A|33333333| 2x
E|--------|


Verse 3:
G|---------| - - - - |
D|---------| - - - - |
A|---------| - - - - | 3x
E|02h33-2h3| - - - - |

G|-------------------------------------------------|
D|-------------------5-----------------------------|
A|-------------------------------------------------|
E|02h33-2h3-3/15---\3-3\110h1----3/887h8--3/88p7\--|


Verse 4:
G|------| - - - - |---------| - - - - |--------| - - - - |
D|------| - - - - |---------| - - - - |--------| - - - - |
A|------| - - - - |---------| - - - - |--------| - - - - |
E|33-2h3| - - - - |02h33-2h3| - - - - |1/33-2h3| - - - - |

G|----------------------------------------------------------------------|
D|----------------------------------------------------------------------|
A|----------------------------------------------------------------------|
E|02h33-2h3-3/15--------\110h1----3/887h8--3/88p7\-110h1~-------0110h1-1|


Chorus: 
G|------------------|     - - -
D|------------------|            |
A|------------------|            |
E|332h3-0h2332h3-3\1|            |
                                 |
G|--------------------|          |
D|--------------------|          | 
A|--------------------|          |
E|332h3-0h2332h3-3/15\|          |
                                 | 2x
G|-----| - - - |-------|         |
D|-----| - - - |-------|         |
A|-----| - - - |-------|         |
E|110h1| - - - |0-110h1|         | 
                                 |
G|------|                        |
D|------|                        |
A|------|                        |
E|110110|                 - - -

G|--------|
D|--------|
A|33333333| 8x
E|--------|



Bridge:
G|--------------|    |----|
D|--------------|    |----|
A|--------------| 2x |----|
E|33x33x--33x33x|    |-1/3|

|--------------|    |----------------------|
|--------------|    |--------------77--77--|
|--------------| 2x |--101088101088--88--88|
|33x33x--33x33x|    |1/--------------------|
  /                         \
 /G|--------------|    |----|\
/ D|--------------|    |----| \
\ A|--------------| 2x |----| / 4x
 \E|33x33x--33x33x|    |-1/3|/
  \                         /

G|--------------|
D|--------------|
A|--------------|
E|33x33x--33x33x|

G|------------|    |------------|    |------------|
D|------------|    |------------|    |------------|
A|------------| 2x |22x22x22x22x| 2x |------------| 2x
E|33x33x33x33x|    |------------|    |11x11x11x11x|

G|------------|    |------------|    |------------|
D|------------|    |------------|    |------------|
A|------------| 2x |22x22x22x22x| 2x |------------|
E|33x33x33x33x|    |------------|    |11x11x11x11x|

G|--------------------------|
D|--------------------------|
A|--------------------------|
E|1-1-1-1-1-1-1-1-111-1-11-1|

Guitar plays 
G|----------------------------------------------------|
D|----------------------------------------------------|
A|----------------------------------------------------| 2x
E|332h3-02h332h3-2-332h3-02h332h3/15\-110h1----0011010|


Outro: Electric guitar (no bass)


-----------------------------------------------------------------------------
h - hammer on
p - pull-off
x - muted note
/ - slide up
\ - slide down
-----------------------------------------------------------------------------

There wasn't a tab for this anywhere, so I decided to write one cause this song is 
a "Must Know" for all bass players!


This song is one of my favorites and is super fun to play.  The Friendly Fires 
never leave me disappointed when it comes to bass lines.

Enjoy!

/|\

P.S.
If you don't have the deluxe version of the Friendly Fires album, GET IT!! It's 
amazing!!
Добавлено: 23.06.2012
Другие материалы по этой песне:
  • Аккорды и текст

Страница создана 23.06.2012
http://primanota.ru/friendly-fires/relationships-chords.htm
Привет, Гость.
Предлагаем пройти революционный курс по гитаре.
Подарок от PrimaNota.Ru, забирай!