PrimaNota.ru - самый крупный в мире бесплатный архив песенных текстов, аккордов, табулатур и нот


Fresh Body Shop - Guilty Crowds - таба, видео

Регистрация Запомнить меня
Войти через:  Facebook Google Twitter Vk Yandex Mail.ru

Fresh Body Shop - Guilty Crowds - таба, видео

Печатать
Просмотров: 78
Авторы музыки: Pedro Rousseau
Авторы текста: Pedro Rousseau
                                GUILTY CROWDS                       
                               Fresh Body Shop
Album: Orgamilk
Tabbed by: the_jackyl

VERSE 1

     E  E  E  E  E  E  E  E     E  E  E  E  E  E  E  E   
E||--------------------------|--------------------------|
B||--------1-----------1-----|--------1-----------1-----|
G||--------3-----------3-----|--------3-----------3-----|
D||--------------------------|--------------------------|
A||--3--3-----3--------------|--3--3-----3--------------|
E||--------------3--3-----3--|--------------3--3-----3--|


  E  E  E  E  E  E  E  E     E  E  E  E  E  E  E  E     E  E  E  Q    E  E  E   
--------------------------|--------------------------|-------------------------|
--------1-----------1-----|--------1-----------1-----|--1--1--1--1----1--1--1--|
--------3-----------3-----|--------3-----------3-----|--3--3--3--3----3--3--3--|
--------------------------|--------------------------|--3--3--3--3----3--3--3--|
--3--3-----3--------------|--3--3-----3--------------|-------------------------|
--------------3--3-----3--|--------------3--3-----3--|-------------------------|


  E  E  E  E  E  E  E  E     E  E  E  E  E  E  E  E   
--------------------------|--------------------------|
--L--1--1--1--1--1--1--1--|--------1-----------1-----|
--L--2--2--2--2--2--2--2--|--------3-----------3-----|
--L--3--3--3--3--3--3--3--|--------------------------|
--------------------------|--3--3-----3--------------|
--------------------------|--------------3--3-----3--|


  E  E  E  E  E  E  E  E     E  E  E  E  E  E  E  E   
--------------------------|--------------------------|
--------1-----------1-----|--------1-----------1-----|
--------3-----------3-----|--------3-----------3-----|
--------------------------|--------------------------|
--3--3-----3--------------|--3--3-----3--------------|
--------------3--3-----3--|--------------3--3-----3--|


  E  E  E  E  E  E  E  E     E  E  E  Q    E  E  E     E  E  E  E  E  E  E  E   
--------------------------|-------------------------|--------------------------|
--------1-----------1-----|--1--1--1--1----1--1--1--|--L--1--1--1--1--1--1--1--|
--------3-----------3-----|--3--3--3--3----3--3--3--|--L--2--2--2--2--2--2--2--|
--------------------------|--3--3--3--3----3--3--3--|--L--3--3--3--3--3--3--3--|
--3--3-----3--------------|-------------------------|--------------------------|
--------------3--3-----3--|-------------------------|--------------------------|


  E  E  E  E  E  E  E  E     E  E  E  E  E  E  E  E   
--------------------------|--------------------------|
--------1-----------1-----|--------1-----------1-----|
--------3-----------3-----|--------3-----------3-----|
--------------------------|--------------------------|
--3--3-----3--------------|--3--3-----3--------------|
--------------3--3-----3--|--------------3--3-----3--|


  E  E  E  E  E  E  E  E     E  E  E  E  E  E  E  E     E  E  E  Q    E  E  E   
--------------------------|--------------------------|-------------------------|
--------1-----------1-----|--------1-----------1-----|--1--1--1--1----1--1--1--|
--------3-----------3-----|--------3-----------3-----|--3--3--3--3----3--3--3--|
--------------------------|--------------------------|--3--3--3--3----3--3--3--|
--3--3-----3--------------|--3--3-----3--------------|-------------------------|
--------------3--3-----3--|--------------3--3-----3--|-------------------------|


  E  E  E  E  E  E  E  E     E  E  E  Q    E  E  E     E  E  E  E  E  E  E  E   
--------------------------|-------------------------|--------------------------|
--L--1--1--1--1--1--1--1--|--1--1--1--1----1--1--1--|--L--1--1--1--1--1--1--1--|
--L--2--2--2--2--2--2--2--|--3--3--3--3----3--3--3--|--L--2--2--2--2--2--2--2--|
--L--3--3--3--3--3--3--3--|--3--3--3--3----3--3--3--|--L--3--3--3--3--3--3--3--|
--------------------------|-------------------------|--------------------------|
--------------------------|-------------------------|--------------------------|


CHORUS 1

  E  E  E  E  E  E  E  E     E  E  E  Q    E  E  E     E  E  Q    E  E  E  E   
--------------------------|--1--1--1--1----1--1--1--|-------------------------|
--6--6--6--6--6--6--6--6--|--1--1--1--1----1--1--1--|--8--8--8----8--8--8--8--|
--6--6--6--6--6--6--6--6--|--1--1--1--1----1--1--1--|--8--8--8----8--8--8--8--|
--6--6--6--6--6--6--6--6--|--3--3--3--3----3--3--3--|--8--8--8----8--8--8--8--|
--4--4--4--4--4--4--4--4--|--3--3--3--3----3--3--3--|--6--6--6----6--6--6--6--|
--4--4--4--4--4--4--4--4--|--1--1--1--1----1--1--1--|--6--6--6----6--6--6--6--|


  Q    E  Q    E  E  E     E  E  E  E  E  E  E  E     E  E  E  Q    E  E  E   
------------------------|--------------------------|--1--1--1--1----1--1--1--|
--6----6--6----6--6--6--|--6--6--6--6--6--6--6--6--|--1--1--1--1----1--1--1--|
--6----6--6----6--6--6--|--6--6--6--6--6--6--6--6--|--1--1--1--1----1--1--1--|
--8----8--8----8--8--8--|--6--6--6--6--6--6--6--6--|--3--3--3--3----3--3--3--|
--8----8--8----8--8--8--|--4--4--4--4--4--4--4--4--|--3--3--3--3----3--3--3--|
--6----6--6----6--6--6--|--4--4--4--4--4--4--4--4--|--1--1--1--1----1--1--1--|


  E  E  Q    E  E  E  E     Q    E  Q    E  E  E     E  E  E  E  E  E  E  E   
-------------------------|------------------------|--------------------------|
--8--8--8----8--8--8--8--|--6----6--6----6--6--6--|--6--6--6--6--6--6--6--6--|
--8--8--8----8--8--8--8--|--6----6--6----6--6--6--|--6--6--6--6--6--6--6--6--|
--8--8--8----8--8--8--8--|--8----8--8----8--8--8--|--6--6--6--6--6--6--6--6--|
--6--6--6----6--6--6--6--|--8----8--8----8--8--8--|--4--4--4--4--4--4--4--4--|
--6--6--6----6--6--6--6--|--6----6--6----6--6--6--|--4--4--4--4--4--4--4--4--|


  E  E  E  Q    E  E  E   
--1--1--1--1----1--1--1--|
--1--1--1--1----1--1--1--|
--1--1--1--1----1--1--1--|
--3--3--3--3----3--3--3--|
--3--3--3--3----3--3--3--|
--1--1--1--1----1--1--1--|

[VERSE 2]

CHORUS 2

  E  E  E  E  E  E  E  E     E  E  E  Q    E  E  E     E  E  Q    E  E  E  E   
--------------------------|--1--1--1--1----1--1--1--|-------------------------|
--6--6--6--6--6--6--6--6--|--1--1--1--1----1--1--1--|--8--8--8----8--8--8--8--|
--6--6--6--6--6--6--6--6--|--1--1--1--1----1--1--1--|--8--8--8----8--8--8--8--|
--6--6--6--6--6--6--6--6--|--3--3--3--3----3--3--3--|--8--8--8----8--8--8--8--|
--4--4--4--4--4--4--4--4--|--3--3--3--3----3--3--3--|--6--6--6----6--6--6--6--|
--4--4--4--4--4--4--4--4--|--1--1--1--1----1--1--1--|--6--6--6----6--6--6--6--|


  Q    E  Q    E  E  E     E  E  E  E  E  E  E  E     E  E  E  Q    E  E  E   
------------------------|--------------------------|--1--1--1--1----1--1--1--|
--6----6--6----6--6--6--|--6--6--6--6--6--6--6--6--|--1--1--1--1----1--1--1--|
--6----6--6----6--6--6--|--6--6--6--6--6--6--6--6--|--1--1--1--1----1--1--1--|
--8----8--8----8--8--8--|--6--6--6--6--6--6--6--6--|--3--3--3--3----3--3--3--|
--8----8--8----8--8--8--|--4--4--4--4--4--4--4--4--|--3--3--3--3----3--3--3--|
--6----6--6----6--6--6--|--4--4--4--4--4--4--4--4--|--1--1--1--1----1--1--1--|


  E  E  Q    E  E  E  E     Q    E  Q    E  E  E     E  E  E  E  E  E  E  E   
-------------------------|------------------------|--------------------------|
--8--8--8----8--8--8--8--|--6----6--6----6--6--6--|--6--6--6--6--6--6--6--6--|
--8--8--8----8--8--8--8--|--6----6--6----6--6--6--|--6--6--6--6--6--6--6--6--|
--8--8--8----8--8--8--8--|--8----8--8----8--8--8--|--6--6--6--6--6--6--6--6--|
--6--6--6----6--6--6--6--|--8----8--8----8--8--8--|--4--4--4--4--4--4--4--4--|
--6--6--6----6--6--6--6--|--6----6--6----6--6--6--|--4--4--4--4--4--4--4--4--|


  E  E  E  Q    E  E  E     E  E  Q    E  E  E  E     Q    E  Q    E  E  E   
--1--1--1--1----1--1--1--|-------------------------|------------------------|
--1--1--1--1----1--1--1--|--8--8--8----8--8--8--8--|--6----6--6----6--6--6--|
--1--1--1--1----1--1--1--|--8--8--8----8--8--8--8--|--6----6--6----6--6--6--|
--3--3--3--3----3--3--3--|--8--8--8----8--8--8--8--|--8----8--8----8--8--8--|
--3--3--3--3----3--3--3--|--6--6--6----6--6--6--6--|--8----8--8----8--8--8--|
--1--1--1--1----1--1--1--|--6--6--6----6--6--6--6--|--6----6--6----6--6--6--|


  E  E  E  E  E  E  E  E     E  E  E  Q    E  E  E 
--------------------------|--1--1--1--1----1--1--1--|
--6--6--6--6--6--6--6--6--|--1--1--1--1----1--1--1--|
--6--6--6--6--6--6--6--6--|--1--1--1--1----1--1--1--|
--6--6--6--6--6--6--6--6--|--3--3--3--3----3--3--3--|
--4--4--4--4--4--4--4--4--|--3--3--3--3----3--3--3--|
--4--4--4--4--4--4--4--4--|--1--1--1--1----1--1--1--|

OUTRO

  E  E  E  E  E  E  E  E     E  E  E  E  E  E  E  E           W
--------------------------|--------------------------||   |-----||
--------1-----------1-----|--------1-----------1-----||   |-----||
--------------------------|-------------------------.||8x |-----||
--0--3-----0-----3--------|-----3-----------3-------.||   |-----||
--------------1--------1--|--3--------3--------------||   |-----||
--------------------------|--------------1--------1--||   |--1--||




Duration Legend
---------------
W - whole
H - half
Q - quarter
E - 8th
S - 16th
T - 32nd
X - 64th
. - note dotted
|-n-|  - n-tuplets


Tablature Legend
----------------
L - tied note
x - dead note
g - grace note
(n) - ghost note
> - accentuded note
NH - natural harmonic
AH - artificial harmonic
TH - tapped harmonic
SH - semi harmonic
PH - pitch harmonic
h - hammer on
p - pull off
b - bend
br - bendRelease
pb - preBend
pbr - preBendRelease
brb - bendReleaseBend
\n/ - tremolo bar dip
\n - tremolo bar dive
-/n - tremolo bar Release up
/n\ - tremolo bar inverted dip
/n - tremolo bar return
-\n - tremolo bar Release down
S - shift slide
s - legato slide
/ -  slide into from below or out of upwards
\ -  slide into from above or out of downwards
~ - vibrato
W - wide vibrato
tr - trill
TP - tremolo picking
T - tapping
S - slap
P - pop
< - fade in
^ - brush up
v - brush down
Добавлено: 01.03.2012
Вам также может быть интересно:
Другие материалы по этой песне:

Страница создана 01.03.2012
http://primanota.ru/fresh-body-shop/guilty-crowds-chords.htm
Привет, Гость.
Предлагаем пройти революционный курс по гитаре.
Подарок от PrimaNota.Ru, забирай!