PrimaNota.ru - самый крупный в мире бесплатный архив песенных текстов, аккордов, табулатур и нот


Frequency Modulation - Pig - аккорды и текст, таба, видео

Регистрация Запомнить меня
Войти через:  Facebook Google Twitter Vk Yandex Mail.ru

Frequency Modulation - Pig - аккорды и текст, таба, видео

Печатать
Просмотров: 108
Pig
Frequency Modulation
		   t. See http://www..net/faq/ for more information.                     #
#-----------------------------------------------------------------------------#




-------------------
PIG
Frequency Modulation
from All Day, Every Day
(c) 1997
Transcribed by:
Phypotari Maxamillion
---------------------

INTRO w/ heavy distortion

E|---------------|---------------|---------------|--------------|
B|---------------|---------------|---------------|--------------|
G|---------------|---------------|---------------|--------------|
D|---------------|---------------|---------------|--------------|
A|-2-2-2-2-2-2-2-|-3-3-3-3-3-3-3-|-5-5-5-5-5-5-5-|--7--7--7--7--|
E|-0-0-0-0-0-0-0-|-1-1-1-1-1-1-1-|-3-3-3-3-3-3-3-|--5--5--5--5--|

VERSE 1

E|-----------|--------------|--------------|--------------|
B|-----------|--------------|--------------|--------------|
G|-----------|--------------|--------------|--------------|
D|-2-2-2-2-3-|--2-2--3------|--2--2--2-----|---5-----5----|
A|-2-2-2-2-3-|--2-2--3------|--2--2--2-----|---5-----5----|
E|-0-0-0-0-1-|--0-0--1------|--0--0--0-----|---3-----3----|    x4


CHORUS

E--------------|--------------|--------------|----------------------|
B--------------|--------------|--------------|----------------------|
G--------------|--------------|--------------|----------------------|
D--------------|--------------|--------------|----------------------|
A--7--7--7--7--|--5--5--5--5--|--4--4--4--4--|--3----3----3----3----|
E--5--5--5--5--|--3--3--3--3--|--2--2--2--2--|--1----1----1----1----|

VERSE 2:

E|-----------|---------------|---------------|--------------|
B|-----------|---------------|---------------|--------------|
G|-----------|---------------|---------------|--------------|
D|-2-2-2-2-3-|---2---2---3---|---------------|--------------|
A|-2-2-2-2-3-|---2---2---3---|-----2-----2---|----7----5----|
E|-0-0-0-0-1-|---0---0---1---|-----0-----0---|----5----3----|   x4

REPEAT CHORUS

VERSE 3:

E|-----------|---------------|---------------|-------------|
B|-----------|---------------|---------------|-------------|
G|-----------|---------------|---------------|-------------|
D|-2-2-2-2-3-|---2---2---3---|---------------|-------------|
A|-2-2-2-2-3-|---2---2---3---|-----2-----2---|---5--5--5---|
E|-0-0-0-0-1-|---0---0---1---|-----0-----0---|---5--3--3---|   x4


That's all.  Remeber kids, it's not rape if it's dead!!
FM_4ever@hotmail.com     
Добавлено: 09.08.2013
Вам также может быть интересно:
Другие материалы по этой песне:
  • Аккорды и текст

Страница создана 16.06.2012
http://primanota.ru/frequency-modulation/pig-chords.htm
Привет, Гость.
Предлагаем пройти революционный курс по гитаре.
Подарок от PrimaNota.Ru, забирай!