PrimaNota.ru - самый крупный в мире бесплатный архив песенных текстов, аккордов, табулатур и нот


Frenzal Rhomb - Worlds Fuckedest Cunt - текст песни, таба, видео

Регистрация Запомнить меня
Войти через:  Facebook Google Twitter Vk Yandex Mail.ru

Frenzal Rhomb - Worlds Fuckedest Cunt - текст песни, таба, видео

Печатать
Просмотров: 102
Уроки эстрадного вокала в Санкт-Петербурге
World's Fuckedest Cunt by Frenzal Rhomb
Song number 12 on 2003 album 'Sans Souci'
Tuning: Drop D

Let guitar feedback ring for 6 full bass lines, then pickslide, then
Intro
e---------------------------------------------------------------------------|
B---------------------------------------------------------------------------|
G---------------------------------------------------------------------------|
D---66666666---77777777-----------------------------------------------------|
A---44444444---55555555-----------------------------------------------------|
D---------------------------------------------------------------------------|

Verse #1              'Well who could know.....'
e---------------------------------------------------------------------------|
B---------------------------------------------------------------------------|
G--8------------------------------------------------------------------------|
D--8----8-------9-------4-----6---------------------------------------------|
A--6----8-------9-------4-----6---------------------------------------------|
D-------8-------9-------4-----6---------------------------------------------|


e---------------------------------------------------------------------------|
B---------------------------------------------------------------------------|
G--8------------------------------------------------------------------------|
D--8----8-------9----------------X---4---X---4----6666666666----------------|
A--6----8-------9----------------X---4---X---4----4444444444----------------|
D-------8-------9----------------X---4---X---4------------------------------|

e---------------------------------------------------------------------------|
B---------------------------------------------------------------------------|
G--8------------------------------------------------------------------------|
D--8----8-------9-------4-----6---------------------------------------------|
A--6----8-------9-------4-----6---------------------------------------------|
D-------8-------9-------4-----6---------------------------------------------|

e---------------------------------------------------------------------------|
B---------------------------------------------------------------------------|
G--8------------------------------------------------------------------------|
D--8----8-------9-----66666666--77777777------------------------------------|
A--6----8-------9-----44444444--55555555------------------------------------|
D-------8-------9-----------------------------------------------------------|

Bridge #1   (0:26)
e---------------------------------------------------------------------------|
B---------------------------------------------------------------------------|
G---------------------------------------------------------------------------|
D--------------------------------------------66666666--77777777-------------|
A--6---44---1--2-22------4-------6---44--1---44444444--55555555-------------|
D--------------------------4------------------------------------------------|

Verse #2    'It's closing time...'

e-----------------------------------------------------------------------|
B-----------------------------------------------------------------------|
G--8--------------------------------------------------------------------|
D--8----8-------9-------4-----6-----------------------------------------|
A--6----8-------9-------4-----6-----------------------------------------|
D-------8-------9-------4-----6-----------------------------------------|


e------------------------------------------------------------------------|
B------------------------------------------------------------------------|
G--8---------------------------------------------------------------------|
D--8----8-------9----------------X---4---X---4----6666666666-------------|
A--6----8-------9----------------X---4---X---4----4444444444-------------|
D-------8-------9----------------X---4---X---4---------------------------|

e-----------------------------------------------------------------------|
B-----------------------------------------------------------------------|
G--8--------------------------------------------------------------------|
D--8----8-------9-------4-----6-----------------------------------------|
A--6----8-------9-------4-----6-----------------------------------------|
D-------8-------9-------4-----6-----------------------------------------|

e-----------------------------------------------------------------------|
B-----------------------------------------------------------------------|
G--8--------------------------------------------------------------------|
D--8----8-------9-----66666666------------------------------------------|
A--6----8-------9-----44444444------------------------------------------|
D-------8-------9-------------------------------------------------------|

Chorus #1  'He's your best mate....'
e--------------------------------------------------------------------|
B--------------------------------------------------------------------|
G---------------------------6----------------------------------------| X2
D--4---9---1-------9--6--4--6----------------------------------------|
A--4---9---1-------9--6--4--4----------------------------------------|
D--4---9---1-------9--6--4-------------------------------------------|

Verse #3 'Well he's still there...'
e-----------------------------------------------------------------------|
B-----------------------------------------------------------------------|
G--8--------------------------------------------------------------------|
D--8----8-------9-------4-----6-----------------------------------------|
A--6----8-------9-------4-----6-----------------------------------------|
D-------8-------9-------4-----6-----------------------------------------|

e--------------------------------------------------------------|
B--------------------------------------------------------------|
G--8-----------------------------------------------------------|
D--8----8-------9----------------X---4---X---4----6666666666---|
A--6----8-------9----------------X---4---X---4----4444444444---|
D-------8-------9----------------X---4---X---4-----------------|

e------------------------------------------------------------------------|
B------------------------------------------------------------------------|
G--8---------------------------------------------------------------------|
D--8----8-------9-------4-----6------------------------------------------|
A--6----8-------9-------4-----6------------------------------------------|
D-------8-------9-------4-----6------------------------------------------|

e------------------------------------------------------------------|
B------------------------------------------------------------------|
G--8---------------------------------------------------------------|
D--8----8-------9-----66666666-------------------------------------|
A--6----8-------9-----44444444-------------------------------------|
D-------8-------9--------------------------------------------------|

Chorus #2 'He's your best mate....'
e--------------------------------------------------------------------|
B--------------------------------------------------------------------|
G---------------------------6----------------------------------------|
D--4---9---1-------9--6--4--6----------------------------------------| X2
A--4---9---1-------9--6--4--4----------------------------------------|
D--4---9---1-------9--6--4-------------------------------------------|

Bridge #2 (1:18) Use clean sound to start
e--2---2---6---2--4---------------------------------------------------|
B--2---2---6---2--4---------------------------------------------------|
G--3---4---8---4--6---------------------------------------------------| X2
D--4---4---8---4--6---------------------------------------------------|
A--4---2---6---2--4---------------------------------------------------|
D---------------------------------------------------------------------|

Switch to distortion for part below
e----------------------------------------------------------------|
B----------------------------------------------------------------|
G----------------------------------------------------------------|
D--44444444--6666-7777-------------------------------------------|
A--22222222--4444-5555-------------------------------------------|
D----------------------------------------------------------------|

Hardcore parody part (1:33)
e------------------------------------------------------------------------|
B------------------------------------------------------------------------|
G------------------------------------------------------------------------|
D-8----6----8--9--8---6----4----9--4----7---6---4------------------------|
A-6----6----8--9--8---6----4----9--4----7---6---4------------------------|
D------6----8--9--8---6----4----9--4----7---6---4------------------------|

e------------------------------------------------------------------------|
B------------------------------------------------------------------------|
G------------------------------------------------------------------------|
D--6--------9---------4----5----6-----1----------------------------------|
A--4---6----7----9----4----5----6-----1----------------------------------|
D------6---------9----4----5----6-----1----------------------------------|

Repeat this x2

Instrumental part  (1:58)
e-------------------------------------------------------------------------|
B-------------------------------------------------------------------------|
G-------------------------------------------------------------------------|
D--8-8---6--7-8-----99-88----------PICK SLIDE-----------------------------|
A--6-6---4--5-6-----77-66-------------------------------------------------|
D-------------------------------------------------------------------------|

Chorus #3  'He's your best mate....'
e--------------------------------------------------------------------|
B--------------------------------------------------------------------|
G---------------------------6----------------------------------------|  X2
D--4---9---1-------9--6--4--6----------------------------------------|
A--4---9---1-------9--6--4--4----------------------------------------|
D--4---9---1-------9--6--4-------------------------------------------|

Use palm mute for part below (fast rhythm)

e--------------------------------------------------------------------|
B--------------------------------------------------------------------|
G---------------------------6----------------------------------------| X2
D--4---9---1-------9--6--4--6----------------------------------------|
A--4---9---1-------9--6--4--4----------------------------------------|
D--4---9---1-------9--6--4-------------------------------------------|

Outro (2:28)(similar to bridge #1)
e--------------------------------------------------------------------------|
B--------------------------------------------------------------------------|
G--------------------------------------------------------------------------|
D--------------------------------------------------------------------------|
A--6---44---1--2-22------4-------6\1---------------------------------------|
D--------------------------4-----------------------------------------------|

Intro
Verse #1
Bridge#1
Verse #2
Chorus#1
Verse#3
Chorus#2
Bridge#2
Hardcore parody part
Instrumental part
Chorus#3
Outro
Добавлено: 21.07.2012
Другие материалы по этой песне:
  • Аккорды и текст

Страница создана 01.05.2012
http://primanota.ru/frenzal-rhomb/worlds-fuckedest-cunt-chords.htm
Привет, Гость.
Предлагаем пройти революционный курс по гитаре.
Подарок от PrimaNota.Ru, забирай!