PrimaNota.ru - самый крупный в мире бесплатный архив песенных текстов, аккордов, табулатур и нот


Frenzal Rhomb - We Built This City - таба, видео

Регистрация Запомнить меня
Войти через:  Facebook Google Twitter Vk Yandex Mail.ru

Frenzal Rhomb - We Built This City - таба, видео

Печатать
Просмотров: 108
Уроки эстрадного вокала в Санкт-Петербурге
Авторы: Peter Wolf, Dennis Lambert, Martin Page, Bernie Taupin

Band – Frenzal Rhomb
Song - We Built This City

Intro:
e|------------------------|
B|------------------------|
G|------------------------|x2
D|------------------8--9--|
A|-2--7--6-4--2--7--6--7--|
E|-0--5--4-2--0--5--------|

e|-12-11------------------|
B|------14-12-------------|
G|------------14-13-11----|
D|---------------------14-|
A|------------------------|
E|------------------------|

Verse:
e|-----------------------------------------------------------------------------------------|
B|-----------------------------------------------------------------------------------------|
G|-9-9-9-9-9-9-9-9-9-9-9-9—-2-2-2-2-2-2-2-2-2-2-2—-7-7-7-7-7-7-7-7—8-8-8-8-8-8-8-9-9-9-9-9-|
D|-9-9-9-9-9-9-9-9-9-9-9-9—-2-2-2-2-2-2-2-2-2-2-2—-7-7-7-7-7-7-7-7—8-8-8-8-8-8-8-9-9-9-9-9-|
A|-7-7-7-7-7-7-7-7-7-7-7-7—-0-0-0-0-0-0-0-0-0-0-0—-5-5-5-5-5-5-5-5-6-6-6-6-6-6-6-7-7-7-7-7-|
E|-----------------------------------------------------------------------------------------|

e|---------|
B|-5-5-4-5-|
G|-4-4-4-4-|
D|---------|
A|---------|
E|---------|

e|-----------------------------------------------------------------------------------------|
B|-----------------------------------------------------------------------------------------|
G|-9-9-9-9-9-9-9-9-9-9-9-9—-2-2-2-2-2-2-2-2-2-2-2—-7-7-7-7-7-7-7-7—8-8-8-8-8-8-8-9-9-9-9-9-|
D|-9-9-9-9-9-9-9-9-9-9-9-9—-2-2-2-2-2-2-2-2-2-2-2—-7-7-7-7-7-7-7-7—8-8-8-8-8-8-8-9-9-9-9-9-|
A|-7-7-7-7-7-7-7-7-7-7-7-7—-0-0-0-0-0-0-0-0-0-0-0—-5-5-5-5-5-5-5-5-6-6-6-6-6-6-6-7-7-7-7-7-|
E|-----------------------------------------------------------------------------------------|

e|-------|
B|-------|
G|-9---8-|
D|-9---8-|
A|-7---6-|
E|-------|

Chorus:
e|-------------------------------------------------------------|------------------|
B|-------------------------------------------------------------|------------------|
G|-6-6-6-6-6-6-6-6---------------9-9-9-9-9-9-9---4-4-4-4-4-4-4-|-------9-------4--| x?
D|-6-6-6-6-6-6-6-6--7-7-7-7-7-7--9-9-9-9-9-9-9---4-4-4-4-4-4-4-|-9--9--9---4-4-4--|
A|-4-4-4-4-4-4-4-4--7-7-7-7-7-7—-7—7-7-7-7-7-7---2-2-2-2-2-2-2-|-7--7--7---2-2-2--|
E|------------------5-5-5-5-5-5--------------------------------|------------------|

e|--------------------------|
B|--------------------------|
G|------4---6---------------|
D|--2---4---6---------------|
A|--2---2---4---------------|
E|--0-----------------------|

e|-------|-----------------|---------------------------|
B|-------|-----------------|---------------------------|
G|-14-14-|-13-13--16-14-13-|-14-14-14--13-13--11-13----|
D|-14-14-|-13-13--16-14-13-|-14-14-14--13-13--11-13-7--|
A|-12-12-|-11-11--14-12-11-|-12-12-12--11-11--9--11-7--|
E|-------|-----------------|------------------------5--|
Guitar Solo:
e|-12------------11-----------------------------------|
B|------------------12-9br--------12br---9------------|
G|------------------------------------------11---9----|
D|----------------------------------------------------|
A|----------------------------------------------------|
E|----------------------------------------------------|

Bridge:
e|-------------------------|
B|-------------------------|
G|-------------------------| x4 (on 4th time add a E chord)
D|---6-6-7-7-7-------------|
A|---6-6-7-7-7-------------|
E|---4-4-5-5-5-------------|


Structure:
Keyboard Thing
Intro
Verse 1 -“Say you don't know me…”
Chorus
Intro
Verse 2 -“Someone's always playin…”
Chorus
Guitar Solo
Bridge
Verse 3 (after “into our guitars” bend 9th fret on the B string)
Chorus(excluding the hight part) With Radio and “Don't you remember, remember”
Chorus
High Part of Chorus Repeated
High Part of Chorus Repeated Behind solo
Drum Solo and swearing

Lyrics:
 
WE built this city,
We built this city on rock and roll

Say you don't know me, or recognize my face
Say you don't care who goes to that kind of place
Knee deep in the hoopla, sinking in your fight
Too many runaways eating up the night

Marconi plays the Mamba,
Listen to the radio
Don't you remember?
We built this city 
We built this city on rock and roll!
We built this city, we built this city on rock and roll
Built this city, we built this city on rock and roll

Someone always playing corporation games
Who cares they're always changing corporation names
We just want to dance here, someone stole the stage
They call us irresponsible, write us off the page

Marconi plays the Mamba,
Listen to the radio
Don't you remember?
We built this city 
We built this city on rock and roll!
We built this city, we built this city on rock and roll
Built this city, we built this city on rock and roll

It's just another Sunday in a tired old street
Police have got the choke hold, and we just lost the beat

Who counts the money underneath the bar
Who rides the wrecking ball into our guitars
Don't tell us you need us, 'cause we're the ship of beers
Going to America, for at least a month

Don't you remember ...

Marconi plays the Mamba,
Listen to the radio -
Don't you remember?
We built this city, 
We built this city on rock and roll
We built this city, we built this city on rock and roll
Built this city, we built this city on rock and roll
Built this city, we built this city on rock and roll
Built this city, we built this city on rock and roll

We built, we built, we built this city x5
(We built this city) 
F*** OFF! NO YOU F*** OFF!
Добавлено: 29.06.2012
Другие материалы по этой песне:
  • Аккорды и текст

Страница создана 29.06.2012
http://primanota.ru/frenzal-rhomb/we-built-this-city-chords.htm
Привет, Гость.
Предлагаем пройти революционный курс по гитаре.
Подарок от PrimaNota.Ru, забирай!